Bass Tabs Someone Like You (Bass Tabs) Adele  

84
[0]
   0

-------------------------------------------------------------------------------
			    Someone Like You - Adele
-------------------------------------------------------------------------------


Tuning:
intro
G|------------------------|
D|------------------------|
A|-----------------5~-----|
E|5~---4~---2~------------|

verse 1
G|------------------------|
D|------------------------|
A|-------------------5~---|x3
E|5~----4~----2~----------|

bridge 1
G|--------------------|
D|--------------------|
A|7~-----------5~-----|x2
E|------2~------------|

Chorus 1
G|-------------------------|
D|-------------------------|
A|------7~----------5~-----|x5
E|5~----------2~-----------|

verse 2
G|------------------------|
D|------------------------|
A|-------------------5~---|x2
E|5~----4~----2~----------|

bridge 2
G|--------------------|
D|--------------------|
A|7~-----------5~-----|x2
E|------2~------------|

Chorus 2
G|-------------------------|
D|-------------------------|
A|------7~----------5~-----|x4
E|5~----------2~-----------|

Break
G|---------------------------------------|
D|---------------------------------------|
A|7~-----------5~------------------------|
E|------2~------------7~-----8~----10~---|

Chorus
G|-------------------------|
D|-------------------------|
A|------7~----------5~-----|x 10
E|5~----------2~-----------|


| /  slide up
|   slide down
| h  hammer-on
| p  pull-off
| ~  vibrato
| +  harmonic
| x  Mute note
==============================================================