Bass Tabs Breaks On (Bass Tabs) Air  

16
[0]
   1

i know it's not really a bassline,
but it's still cool to play along
with your bass.

G:---------5-77---7-5-----------
D:---4-5-7------------7-5-4-----
A:-5------------------------7-5-
E:------------------------------

or maybe it's like this: (not a big change)
G:----------5-7---7-5--------
D:----4-5-7----------7-5-4---
A:5--5---------------------5-
E:---------------------------

brindge: (easy, but practice the timng)
G:---------------------
D:---------------------
A:-55-55-55-55-55-55-5- etc.
E:---------------------

-enjoi