Bass Tabs Playground Love (Bass Tabs) Air  

3
[0]
   0

-------------------------------------------------------------------------------
			     Playground Love - Air
-------------------------------------------------------------------------------


Tuning:standard

Intro:
It's just a C note matched with the bass drum

G|---------------------------------------------------------------------------|
D|---------------------------------------------------------------------------|
A|--10/3--3-3--3--3-3--3--3-3--3--3-3--3--3-3--3--3-3--3--3-3--3--3-3--3--3-3|
E|---------------------------------------------------------------------------|

Verse:
          I'm a high school lover, and you're my favorite flavor
G|---------------------------------------------------------------------------|
D|---------------------------------------------------------------------------|
A|---6----------------3---1-1------------------------------------------------|
E|--------3----------------------4--------3-------4---1----------------------|


      Love is all,   all my soul,  You're my playground love
G|---------------------------------------------------------------------------|
D|---------------------------------------------------------------------------|
A|------------------------------------------5-----4----3---------------------|
E|--4---------1-----4---------1----4-----------------------------------------|

Back to intro and another verse X2

Note- I tabbed the notes to match the lyrics melody, just listen,it's not a hard song
And it's very easy to improvise during the sax solo on the Cm scale, just listen very
Carfully because some timing takes getting used to, have fun!.



| /  slide up
|   slide down
| h  hammer-on
| p  pull-off
| ~  vibrato
| +  harmonic
| x  Mute note
===============================================================================