Bass Tabs The Longest Time (Bass Tabs) Billy Joel  

32
[0]
   0

Billy Joel
The Longest Time

Standard Tuning

CHORUS

  Whoa...
-------------------------------------------|
-------------------------------------------|
--6---------------------6------------------|
-------6--3--4----6---6------6--3--4----6--|


VERSE

  If you...
---------------------------------------------|
---------------------------------------------|
--6--5--3----------6----6--5--3--------------|
-----------6--4-------6----------6--5--1--6--|

-------------------------------------------------|
-------------------------------------------------|
--------------------------------------------6-6--|
--6-4-3--7--8----10----11--3--4----1----6--------|


BRIDGE

  Maybe...
----------------------------------------|
----------------------------------------|
----------------------------------------|
--6-------6-8-------8-9-10-------10-11--|

      Maybe...
------------------------------------------|
------------------------------------------|
------------------------------------------|
--1-2-3-------8--------1-------6----3--1--|