Bass Tabs Vienna Waits For You (Bass Tabs) Billy Joel  

107
[0]
   1

"Vienna" by Billy Joel.
Bass tab by PappaCheez.
*This goes along with the piano in the song, sounds pretty good to me*

Intro(00:01 - 00:15)
G|-3h5---5h6--7--8--7h8p7--5h7p5--3h5---7--8-8-8-8|
D|-------------------------------------------------|
A|-------------------------------------------------|
E|-------------------------------------------------|

Verse1(00:16 - 00:46)
G|-------------------------------------------------------|
D|-3--3---5--5---8--8---7--7---5--5---7--7---5--5---7--7|
A|-------------------------------------------------------|
E|-------------------------------------------------------|

Verse2(00:47 - 01:00)
G|------------------------------------------------|
D|-3-5-3--5-7-5--8-7-5--8-7-5--8-7-5--5-5---8*--7*|
A|------------------------------------------------|
E|------------------------------------------------|

Chorus1(01:01 - 01:09)
G|----------------------------|
D|-3--5h6p5-8--3--2--3--2--3-5|
A|----------------------------|
E|----------------------------|

Verse3(01:10 - 01:40)
G|---------------------------------------|
D|-33-5-3--55-7-5--88-8-77-7--55--7-5-7-5|
A|---------------------------------------|
E|---------------------------------------|

Verse4(01:41 - 01:54)
G|-----------------------------------------------|
D|-33-5-3--55-7-5--88-8-77-7--55-7-5-7-5---8*--7*|
A|-----------------------------------------------|
E|-----------------------------------------------|

Chorus2(01:55 - 02:03)
G|----------------------------|
D|-3--5h6p5-8--3--2--3--2--3-5|
A|----------------------------|
E|----------------------------|

Solo(02:04 - 02:19)
G|--------------------------------------------------------------------------------------------|
D|-3-5-3--5-7-5-7--8-7-8-7-8--10-9-10-9-10-7-9-5--7-5--7-9-7-9--10-9--7-9-7-9-10-9-10-5-7-5--3|
A|--------------------------------------------------------------------------------------------|
E|--------------------------------------------------------------------------------------------|

Verse5(02:20 - 02:33)
G|-----------------------------------------------|
D|-33-5-3--55-7-5--88-8-77-7--55-7-5-7-5---8*--7*|
A|-----------------------------------------------|
E|-----------------------------------------------|

Chorus3(02:34 - 02:42)
G|-----------------------------|
D|-3--5h6p5-8--3--2--3--2--33-5|
A|-----------------------------|
E|-----------------------------|

Verse6(02:43 - 02:56)
G|------------------------------------------------|
D|-3-5-3--5-7-5--8-7-5--8-7-5--8-7-5--5-5---8*--7*|
A|------------------------------------------------|
E|------------------------------------------------|

Chorus4(02:57 - 03:10)
G|-------------------------------33-5-6--2*|
D|-3--5h6p5-8--3--2--3--2--3-5-3-----------|
A|-----------------------------------------|
E|-----------------------------------------|

Ending(03:11 - 03:30)
G|-3h5---5h6--7--8--7h8p7--5h7p5--3h5---7--8*----4*|
D|-------------------------------------------------|
A|-------------------------------------------------|
E|-------------------------------------------------|

Fuente: http://www.azchords.com/b/billyjoel-tabs-473/viennawaitsforyoubass-tabs-543146.html