Bass Tabs Breakdown (Bass Tabs) Chris Daughtry  

38
[0]
   0

intro(acoustic)

verse

|---------------------------------------------------------------------------------|
|---------------------------------------------------------------------------------|
|---------------------------------------------------------------------------------|
|--4----2222-0---000-4----2222-0---000-4----2222-0---000-2222-4----2222-0---000---|

prechorus(can't figure it out, live with it.but doesn't sound all that complicated)

Chorus
|--------------------------------------------------------------------|
|--------------------------------------------------------------------|
|-------------------------------------------------0------------------|
|-0---222-4444--2-0----2222-4444---2-0---2222-444---2-0---2222-4-----|


same verse and chorus as before

bridge
|---------------------------------------------------------------------------------|
|---------------------------------------------------------------------------------|
|----------------000----------------000----------------000-------------------000--|
|-4444-xx-4444-xx-----4444-xx-4444-xx-----4444-xx-4444-xx-----4444-xx-4444-xx-----|

|------------------------|
|-----------0000---------|
|--0---------------------|
|-----2---0------0---00--|

then the acoustic does a few chords

then you play this

|--------------------------------------------------------------------|
|--------------------------------------------------------------------|
|--------------------------------------------------------------------|
|-0---222-4444--2-0----2222-4444---2-0---222--444---2-0---2222-4-----|
                                             ^
                                        have a 1 second
                                        pause rite here

|---------------------------------|
|---------------------------------|
|--------------0------------------|
|-0---2222-444---2-0---2222-4-----|

then you do something like the chorus until the outro

end on
|----------------------|
|----------------------|
|----------------------|
|-0--0-2--222-4--------|


well, it's not that great but it's the best i can do, peace


Lyrics

Open up the book you beat me with again.
Read it off one sentence at a time.
I'm tired of all the lines,
Convictions and your lies.
What right do you have to point at me?

Well, I'm sitting alone thinking about it all over coffee.
And still crowdin' my space are the things you still hold against me.
You cannot save me.

Well, it's not the time to breakdown.
It's not the time to breakdown.
It's not the time to break up this love,
Keep it together now.
It's not the time to break.

Read it all, no need for separating here.
You see what you want and try to justify.
All your little lines,
Convictions and your lies.
What right do you have to point at me?

Well, I'm sitting alone thinking about it all over coffee.
And still crowdin' my space are the things you still hold against me.
You cannot save me.

Well, it's not the time to breakdown.
It's not the time to breakdown.
It's not the time to break up this love,
Keep it together now.
It's not the time to break.

Open up the book you beat me with again.
Read it off one sentence at a time.

Well, it's not the time to breakdown.
Well, it's not the time to breakdown.
Well, it's not the time to breakdown.
Well, it's not the time to breakdown.
Well, it's not the time to break up this love,
Keep it together now.
Well, it's not the time to break,
Breakdown.