Bass Tabs Crashed (Bass Tabs) Chris Daughtry  

38
[0]
   1

Bassist-John Paul

Just a heads-up: Normally a 5-string would be used for this song, but I tabbed it using a 4.

Verse (Don't play Intro)

G|--------|--------| (x4)
D|--------|--------|
A|--------|--------|
D|6-6-9---|2-2-4---|

Chorus

G|------------------|------------------| (x2)
D|------------------|------------------|
A|------------------|22222222----------|(Note: Played with variations)
D|66666666-22222222-|---------44444444-|

Verse

G|--------|--------| (x4)
D|--------|--------|
A|--------|--------|
D|6-6-9---|2-2-4---|

Chorus

G|------------------|------------------| (x2)
D|------------------|------------------|
A|------------------|22222222----------|     (Again, variations)
D|66666666-22222222-|---------44444444-|

Bridge

G|-----------------------| (x2) 
D|-----------------------|
A|2-2--2-2--22-4-4-4-4-44|
D|-----------------------|

G|--------|
D|--------|
A|--------|
D|678-9---|

Chorus

G|-----------------|---------43------43-------------|
D|-----------------|-------------43-------43----2-4-|
A|-----------------|22222222----4---4----4---4-4---4|
D|R-R-R-R-22222222-|--------------------------------|

G|------------------|------------------| (x2)
D|------------------|------------------|
A|------------------|22222222----------|
D|66666666-22222222-|---------44444444-|

G|------------------|--------------| 
D|------------------|--------------|
A|------------------|22222222------|
D|66666666-22222222-|---------4~---|

Let Ring till the end of song.

I may not have the number of notes right, but the right notes
are there.  I included one variation, but the rest are pretty
self-expanatory and you should be able to figure them out 
yourself.  Comments are welcome, and enjoy.

Fuente: http://www.azchords.com/c/chrisdaughtry-tabs-29015/crashed-tabs-248012.html