Bass Tabs No Surprise (Bass Tabs) Chris Daughtry  

23
[0]
   0

-------------------------------------------------------------------------------
			     NO SURPRISE - Daughtry
-------------------------------------------------------------------------------


Tuning: 430 (Eb,Ab,Db,Gb)

Authors Note: These notes are played with the rhythm 
so just thump away with the rhythm and you will easily get this song.

Verse 1 
Gb|---------------------|
Db|---------------------|
Ab|------2---4---0------|
Eb|--0------------------|

Pre Chorus:
Gb|---------------------|
Db|---------------------|
Ab|----------0----------|
Eb|--2------------------|

Chorus:
Gb|---------------------|
Db|---------------------|
Ab|------2---4---0--2---|
Eb|--0-----------------0|

Verse 2:
Gb|---------------------|
Db|---------------------|
Ab|------2---4---0------|
Eb|--0------------------|

Pre Chorus:
Gb|---------------------|
Db|---------------------|
Ab|----------0----------|
Eb|--2------------------|

Chorus 2:
Gb|---------------------|
Db|---------------------|
Ab|------2---4---0--2---|
Eb|--0------------------|  

Gb|---------------------|
Db|---------------------|
Ab|------2---4---0--2---|
Eb|--0-----------------0|

Bridge:
Gb|---------------------|
Db|---------------------|
Ab|------2---4---0--2---|
Eb|--0------------------|

Verse 3: (These notes can ring out)
Gb|---------------------|
Db|---------------------|
Ab|------2---4---0---0--|
Eb|--0------------------|

Chorus 3/Outro:
Gb|---------------------|
Db|---------------------|
Ab|------2---4---0--2---|
Eb|--0------------------|  

Gb|---------------------|
Db|---------------------|
Ab|------2---4---0--2---|
Eb|--0-----------------0|


| /  slide up
|   slide down
| h  hammer-on
| p  pull-off
| ~  vibrato
| +  harmonic
| x  Mute note
===============================================================================