Bass Tabs 1.36 (Bass Tabs) Coldplay  

146
[0]
   1

-------------------------------------------------------------------------------
			     1.36 - Coldplay
-------------------------------------------------------------------------------


 Tuning:Standard
 Verse x2 (Come in at 0.07),Note:1's not 11's
G|--------------------------------------------------------|
D|--------------------------------------------------------|
A|--------------------------------------------------------|
E|4-1-11-1-4-1-11-1-4-1-11-1-4-1-11-1-4-44-44-3-33-33-33--|

 Pre-Chorus
G|-------------------------------------|
D|-------------------------------------|
A|-------------------------------------|
E|4-1-11-1-4-1-11-1-4-1-11-1-4-1-11-1--|

 Chorus x4
G|-------------------|
D|-------------------|
A|33333333-33333333--|
E|-------------------|

 Post-Chorus
G|-------------------------------------|
D|-------------------------------------|
A|-------------------------------------|
E|4-1-11-1-4-1-11-1-4-1-11-1-4-1-11-1--|

 Verse x2
G|--------------------------------------------------------|
D|--------------------------------------------------------|
A|--------------------------------------------------------|
E|4-1-11-1-4-1-11-1-4-1-11-1-4-1-11-1-4-44-44-3-33-33-33--|

  Pre-Chorus
G|-------------------------------------|
D|-------------------------------------|
A|-------------------------------------|
E|4-1-11-1-4-1-11-1-4-1-11-1-4-1-11-1--|

  Chorus x4
G|-------------------|
D|-------------------|
A|33333333-33333333--|
E|-------------------|

 Outro
G|-------------------------------------|
D|-------------------------------------|
A|-------------------------------------|
E|4-1-11-1-4-1-11-1-4-1-11-1-4-1-11-1--|

G|--------------------------------------------------------|
D|--------------------------------------------------------|
A|--------------------------------------------------------|
E|4-1-11-1-4-1-11-1-4-1-11-1-4-1-11-1-4-44-44-3-33-33-33--|


| /  slide up
|   slide down
| h  hammer-on
| p  pull-off
| ~  vibrato
| +  harmonic
| x  Mute note
===============================================================================

Fuente: http://www.azchords.com/c/coldplay-tabs-836/136-tabs-343609.html