Bass Tabs 42 (Bass Tabs) Coldplay  

142
[0]
   0

Leading up to the cool guitar bit
G|---------------|
D|---------------|
A|3-333-3~-------|
E|---------------|x1

G|------------------------------------------------|
D|--3--3-3-333--3-3--------6--6---------6--6----8-|
A|------------------------------------------------|
E|1--11--------1-1-1-333-44--4-4-4444-4---4-4-66-6|

G|----------------------------------------------|
D|3--33---------3--3---------6-6-6-666-8-8-8-88-|
A|----------1------------1----------------------|
E|-1---1-1-3-3-1--1-1-1-3-3-4-4-------6---------|
Play around with this part until the sort of heavy-ish(for Coldplay) guitar comes in, 
mess around with this one until the last verse thing starts.
G|---------------------------------------------------------|
D|---333---3333333----333---333333-----6----6666-----6----8|
A|---------------------------------------------------------|
E|111---111-------1111---111------44444-4444----44444-6666-|

Last sort of verse thing "You thought you might be a ghost"
G|------------------------------------------------|
D|------------------------------------------------|
A|------------------------44-44-4444-44-444-444-4-|
E|44-44-4444-44-444-444-4-------------------------|

G|-----------------------------------------------|
D|66-66-6666-66-666-666-6------------------------|
A|------------------------44-44-444-44-444-444-4-|
E|-----------------------------------------------|
Play this for the outro

Fuente: http://www.azchords.com/c/coldplay-tabs-836/42-tabs-343610.html