Bass Tabs Animals (Bass Tabs) Coldplay  

133
[0]
   1

-------------------------------------------------------------------------------
			     Animals - Coldplay
-------------------------------------------------------------------------------

 This is a b-side from the album A rush Of Blood To The Head 2002.
 Tuning:Standard
 Intro x4
G|-------------------|
D|-------------------|
A|66666666-88888888--|
E|-------------------|

 Verse x4
G|-----------------------------------------------------------------------------------|
D|-----------------------------------------------------------------------------------|
A|------6~---------------------------------------------------------------------------|
E|3~-6~----8~------------------------------------------------------------------------|

 Interlude x2
G|---------------------|
D|---------------------|
A|----------6666-------|
E|3333-6666------8888--|

 Verse x4
G|-----------------------------------------------------------------------------------|
D|-----------------------------------------------------------------------------------|
A|------6~---------------------------------------------------------------------------|
E|3~-6~----8~------------------------------------------------------------------------|

 Chorus x4
G|-------------------|
D|-------------------|
A|66666666-88888888--|
E|-------------------|


 Verse x6
 Chorus x4
 Verse x4
 Interlude x6
 Verse x12

| /  slide up
|   slide down
| h  hammer-on
| p  pull-off
| ~  vibrato
| +  harmonic
| x  Mute note
===============================================================================

Fuente: http://www.azchords.com/c/coldplay-tabs-836/animals-tabs-343598.html