Bass Tabs Christmas Lights (Bass Tabs) Coldplay  

125
[0]
   1

-------------------------------------------------------------------------------
			     CHRISTMAS LIGHTS - Coldplay
-------------------------------------------------------------------------------


Tuning: Standard

Parts that are ()'d are only played live.

(G|-----------------------------| )
(D|-----------------------------| )
(A|-------------------------3-5-| )
(E|-3~--3~--3~--0-2-3~-3~-3~----| )

Verse 1:22
Up above, candles on air flicker...
G|---------------------------------------------------------------------|
D|---------------------------------------------------------------------|
A|-----------------------------------------5----------55555---55555-5--|
E|-12~-10-12~-10-12-10-8--78~-78~-7-33-3-33--33-3-3-3-------3------3-3-|

G|--------------------------------------------------------------------|
D|--------------------------------------------------------------------|
A|-7777737777757--------------555------------------555555-555555--53~-|
E|---------------88-8-887-88-8----3-33-332-3-33-33-------3-------3----|

(G|--------)------| 
(D|--------)------| 
(A|--------)------| 
(E|--10~-8-)--10~-| 

Prechorus 2:06
G|---------------------(-----|)
D|---------------------(-----|)
A|-10~10-9~9-7~7-------(-----|)
E|---------------7~--8~(/10~-|)

Chorus/fun part 2:25
those, christmas, lights...
G|------------------------------------------------------------------------| 
D|----5-----------------------------5-------------------------------------|
A|------7-5------5-7-3~-13-3-3-3------7-5-3~-13-5-6-7~-5-7-5-3---5-7-9----|
E|-3~-------3~-/3----------------3~---------------------------3~-------3~-|

G|----------|
D|----------|
A|----------|
E|-10-10-10-|

If you're playing live, play the ending below this!!!
G|-----------------------------------------------------------------------| 
D|---5-----------------------------5-------------------------------------|
A|-----7-5------5-7-3~-13-3-3-3------7-5-3~-13-5-6-7~-5-7-5-3---5-7-9----|
E|-3~------3~-/3----------------3~---------------------------3~-------3~-|

(G|-----------12~|)
(D|--------------|)
(A|-5-7-9h12p9---|)
(E|--------------|)

G|-------------|
D|-------------|
A|-------------|
E|-10-10-10-10-|

G|----------------------------------------------------------------------------|
D|--5-----------------------------5-------------------------------------------|
A|----7-5------5-7-3~-13-3-3-3------7-5-3~-13-5-6-7~-5-7-5-3---5-7-9h12p9-10~-|
E|3~------3~-/3----------------3~---------------------------3~----------------|

G|------|
D|------|
A|-5--5-|
E|------|

G|---------------------------------------------------|
D|----5---------------------------5------------------|
A|------7------5-7-3~-13-3-3-3------7-5-3~-13-5-6-7~-|
E|-3~----8-7-/3----------------3~--------------------|

Fuente: http://www.azchords.com/c/coldplay-tabs-836/christmaslightsbass-tabs-453803.html