Bass Tabs All The Girls Love Alice (Bass Tabs) Elton John  

66
[0]
   0

ALL THE GIRLS LOVE ALICE - Elton John

Verse 1 0:07
G|-/8-6-|----------------|----------------|----------------|---------------|
D|------|8-8-8-8-8-8-8-8-|8-8-8-8-8-8-8-8-|8-8-8-8-8-8-8-8-|8-8-8-8-8-8-86-|
A|------|----------------|----------------|----------------|--------------8|
E|------|----------------|----------------|----------------|---------------|
0:18
G|----------------|------------------|----------------|------------------|
D|----------------|------------------|----------------|------------------|
A|----------------|------------------|6-6-6-6-6-6-6-6-|--------------6-4-|
E|6-6-6-6-6-6-6-4-|2-2-2-2-0h2-2-2-2/|----------------|0h6-6-6-6-6-6-----|
0:29
G|----------------|------------------|------------------|----------------|
D|----------------|------------------|------------------|----------------|
A|----------------|------------------|6-6-6-6-----------|----------------|
E|6-6-6-6-6-6-6-4-|2-2-2-2-0h2-2-2-2/|--------0h4-4-4-4-|6-6-6-6-6-6-6-6-|
0:40
G|------------------|----------------|------------------|------------------|
D|--------------86--|----------------|------------------|------------------|
A|----------------8-|----------------|------------------|6-6-6-6-4h6-6-6-6-|
E|0h6-6-6-6-6-6-----|6-6-6-6-6-6-6-4-|2-2-2-2-0h2-2-2-2/|------------------|
0:51
G|------------------|-------------------|------------------|----------------|
D|------------------|-------------------|------------------|----------------|
A|------------------|-------------------|------------------|6-6-6-6---6-6-4-|
E|6-6-6-6-4h6-6-6-6-|h6-6-6-6-4h6-6-6-4-|2-2-2-2-0h2-2-2-2/|--------4-------|
1:02
G|-----------------|----------------|----------------|
D|-----------------|----------------|----------------|
A|-----------------|----------------|----------------|
E|4-4-4-4-x4-4-4-4-|6-6-6-6-6-6-6-6-|6-6-6-6-6-6-----|

Chorus 1:11
G|---------|---------|---------|---------|---------|---------|---------|---------|
D|---------|---------|---------|--------6|8>-------|4>-------|7>---9>--|8>-------|
A|---------|---------|4>-------|6>-------|---------|---------|---------|---------|
E|3>-------|2>-------|---------|---------|---------|---------|---------|------6-|
1:33
G|---------|---------|---------|---------|---------|---------|---------|---------|
D|---------|---------|---------|-------6-|8>-------|---------|---------|---------|
A|---------|---------|4>-------|6>--h/8--|---------|---------|---------|---------|
E|3>-------|2>-------|---------|---------|---------|2>-------|5>---7>--|6>-----1/|

Verse 2 1:56
G|----------------|----------------|----------------|------------6------|
D|----------------|----------------|----------------|----------8--8-6---|
A|----------------|----------------|----------------|----------------8-6|
E|6-6-6-6-6-6-6-6-|6-6-6-6-6-6-6-6-|6-6-6-6-6-6-6-6-|6-6-6-6-6----------|
2:07
G|----------------|------------------|----------------|----------------|
D|----------------|------------------|----------------|----------------|
A|----------------|------------------|6-6-6-6-6-6-6-64|----------------|
E|6-6-6-6-6-6-6-4-|2-2-2-2-0h2-2-2-2-|----------------|6-6-6-6-6-6-4-5-|
2:18
G|-----------------|-----------------|----------------|----------------|
D|-----------------|-----------------|----------------|----------------|
A|-----------------|-----------------|6-6-6-6-6-6-64--|----------------|
E|6-6-6-6-66-6-6-4-|2-2-2-2-x2-2-2-2-|--------------65|4-4-4-4-4-4-4-4-|
2:29
G|----------------|----------------|----------------|------------------|
D|----------------|-------------6-6|8---------------|------------------|
A|----------------|--------4-468-8-|----------------|------------------|
E|6-6-6-6-6-6-6-6-|6-6-6-6--6------|--6-6-6-6-6-6-4-|2-2-2-2-0h2-2-2-2/|
2:40
G|----------------|----------------|------------------|-----------------|
D|----------------|----------------|------------------|-----------------|
A|6-6-6-6-6-6-686-|------------6-4-|------------------|-----------------|
E|----------------|6-6-6-6-6-6-----|6-6-6-6-6-6-6-6-4-|2-2-2-2-x2-2-2-2-|
2:51
G|----------------|----------------|----------------|----------------|
D|--------------45|6-6-6-6-6-6-6---|----------------|----------------|
A|6-6-6-6-6-6-6---|--------------64|----------------|----------------|
E|----------------|----------------|6-6-6-6-6-6-6-6-|6-6-6-6-6-6-----|

Chorus 2 3:01
G|---------|---------|---------|---------|---------|---------|---------|---------|
D|---------|---------|---------|-------67|8>-------|---------|---------|----136|
A|---------|---------|4>-------|6>---8---|---------|---------|---------|---------|
E|3>-------|2>-------|---------|---------|---------|2>-----/|5>-/-7>-/|6>-------|
3:25
G|---------|---------|---------|---------|----56---|---------|---------|-----/8-6|
D|---------|---------|---------|---------|8>-----6|---------|---------|---------|
A|---------|---------|4>-------|6>-------|---------|---------|---------|---------|
E|3>-------|2>-------|---------|---------|---------|2>-------|5>--7>-2/|6>-------|

Verse 3 3:47
G|----------------|----------------|----------------|----------------|
D|----------------|----------------|----------------|----------------|
A|----------------|----------------|----------------|----------------|
E|6-6-6-6-6-6-6-6-|6-6-6-6-6-6-6-6-|6-6-6-6-6-6-6-6-|6-6-6-6-6-6-6-6-|
3:59
G|----------------|----------------|----------------|----------------|
D|----------------|----------------|----------------|----------------|
A|----------------|----------------|----------------|----------------|
E|6-6-6-6-6-6-6-6-|6-6-6-6-6-6-6-6-|6-6-6-6-6-6-6-6-|6-6-6-6-6-6-6-4/|
4:09
G|-----------------|----------------|-------------------|----------------|
D|------------8/13|----------------|------------8/11.8|----------------|
A|-----------------|----------------|-------------------|----------------|
E|6-6-6-6-6-6------|6-6-6-6-6-6-6-4/|6-6-6-6-6-6--------|6-6-6-6-6-6-6-x4|
4:20
G|-------------------|----------------|-------------------|----------------|
D|------------8.11.8|----------------|------------8.11.8|----------------|
A|-------------------|----------------|-------------------|----------------|
E|6-6-6-6-6-6--------|6-6-6-6-6-6-6-x4|6-6-6-6-6-6--------|6-6-6-6-6-6-6-4/|
4:31
G|-------------------|----------------|-------------------|----------------|
D|------------8/118|----------------|------------8.11.8|----------------|
A|-------------------|----------------|-------------------|----------------|
E|6-6-6-6-6-6--------|6-6-6-6-6-6-6-4/|6-6-6-6-6-6--------|6-6-6-6-6-6-6-4/|
4:42
G|-------------------|----------------|-----------------|----------------|
D|------------8.11.8|----------------|------------/8x8|----------------|
A|-------------------|----------------|-----------------|----------------|
E|6-6-6-6-6-6--------|6-6-6-6-6-6-6-4/|6-6-6-6-6-6------|6-6-6-6-6-6-6-4/|
4:53
G|-------------------|----------------|-------------------|---------------|
D|------------8.11.8|----------------|------------8.11.8|---------------|
A|-------------------|----------------|-------------------|---------------|
E|6-6-6-6-6-6--------|6-6-6-6-6-6-6-4/|6-6-6-6-6-6--------|6-6-6-6-6-6-6-6|

G|-------------------|
D|------------8.11.8|
A|-------------------|
E|6-6-6-6-6-6--------|

Fuente: http://www.azchords.com/e/eltonjohn-tabs-1316/allthegirlslovealice-tabs-353561.html