Bass Tabs All Shook Up (Bass Tabs) Elvis Presley  

124
[0]
   0

elvis presley_all shook up

TablEdited by Jan Bjorklund   
You are welcome to request for tabs!
Fingering and positions as suggested by TablEdit, please use common sense.


TablEdited by Jan Bjorklund
Tuning : E A D G 	Time Signature: 4/4

 |               |               |               |                
|3---------------0-------------------------------0---------------|
|--------------------------------3-------------------------------|
|----------------------------------------------------------------|
|----------------------------------------------------------------|

 |               |               |               |                
|3---------------0-------------------------------0---------------|
|--------------------------------3-------------------------------|
|----------------------------------------------------------------|
|----------------------------------------------------------------|

 |               |               |               |                
|3---------3-----0-------------------------------0---------------|
|--------------------------------3-------------------------------|
|----------------------------------------------------------------|
|----------------------------------------------------------------|

 |               |               |               |                
|3---------------0-----------------------------------------------|
|--------------------------------3-------------------------------|
|----------------------------------------------------------------|
|----------------------------------------------------------------|

 |               |               |               |                
|3---------------1-------------------------------0---------------|
|--------------------------------3-------------------------------|
|----------------------------------------------------------------|
|----------------------------------------------------------------|

 |               |               |               |                
|----------------1-------------------------------0---------------|
|--------------------------------3-------------------------------|
|----------------------------------------------------------------|
|----------------------------------------------------------------|

 |               |               |               |                
|3---------------1-------------------------------0---------------|
|--------------------------------3-------------------------------|
|----------------------------------------------------------------|
|----------------------------------------------------------------|

 |               |               |               |                
|3---------------1-------------------------------0---------------|
|--------------------------------3-------------------------------|
|----------------------------------------------------------------|
|----------------------------------------------------------------|

 |               |               |               |                
|3---------------1-------------------------------0---------------|
|--------------------------------3-------------------------------|
|----------------------------------------------------------------|
|----------------------------------------------------------------|

 |               |               |               |                
|3---------------1-------------------------------0---------------|
|--------------------------------3-------------------------------|
|----------------------------------------------------------------|
|----------------------------------------------------------------|

 |               |               |               |                
|3---------------------------------------------------------------|
|----------------------------------------------------------------|
|----------------------------------------------------------------|
|----------------------------------------------------------------|

 |               |               |               |                
|----------------------------------------------------------------|
|----------------------------------------------------------------|
|----------------------------------------------------------------|
|----------------------------------------------------------------|

 |               |               |               |                
|----------------0---------------3---------------5---------------|
|1---------------------------------------------------------------|
|----------------------------------------------------------------|
|----------------------------------------------------------------|

 |               |               |               |                
|----------------2---------------5---------------7---------------|
|3---------------------------------------------------------------|
|----------------------------------------------------------------|
|----------------------------------------------------------------|

 |               |               |               |                
|3---------------0-----------------------------------------------|
|--------------------------------3---------------0---------------|
|----------------------------------------------------------------|
|----------------------------------------------------------------|

 |               |               |               |                
|------------------------------------------------0---------------|
|----------------0---------------3-------------------------------|
|1---------------------------------------------------------------|
|----------------------------------------------------------------|

 |               |               |               |                
|3---------------1-------------------------------0---------------|
|--------------------------------3-------------------------------|
|----------------------------------------------------------------|
|----------------------------------------------------------------|

 |               |               |               |                
|3---------------1-------------------------------0---------------|
|--------------------------------3-------------------------------|
|----------------------------------------------------------------|
|----------------------------------------------------------------|

 |               |               |               |                
|3---------------1-------------------------------0---------------|
|--------------------------------3-------------------------------|
|----------------------------------------------------------------|
|----------------------------------------------------------------|

 |               |               |               |                
|3---------------1-------------------------------0---------------|
|--------------------------------3-------------------------------|
|----------------------------------------------------------------|
|----------------------------------------------------------------|

 |               |               |               |                
|3---------------1-----------------------------------------------|
|--------------------------------3-------------------------------|
|----------------------------------------------------------------|
|----------------------------------------------------------------|

 |               |               |               |                
|3---------------1-------------------------------0---------------|
|--------------------------------3-------------------------------|
|----------------------------------------------------------------|
|----------------------------------------------------------------|

 |               |               |               |                
|3---------------------------------------------------------------|
|----------------------------------------------------------------|
|----------------------------------------------------------------|
|----------------------------------------------------------------|

 |               |               |               |                
|----------------------------------------------------------------|
|----------------------------------------------------------------|
|----------------------------------------------------------------|
|----------------------------------------------------------------|

 |               |               |               |                
|----------------0---------------3---------------5---------------|
|1---------------------------------------------------------------|
|----------------------------------------------------------------|
|----------------------------------------------------------------|

 |               |               |               |                
|----------------2---------------5---------------7---------------|
|3---------------------------------------------------------------|
|----------------------------------------------------------------|
|----------------------------------------------------------------|

 |               |               |               |                
|3---------------0-----------------------------------------------|
|--------------------------------3---------------0---------------|
|----------------------------------------------------------------|
|----------------------------------------------------------------|

 |               |               |               |                
|3---------------1---------------0---------------3---------------|
|----------------------------------------------------------3-----|
|----------------------------------------------------------------|
|----------------------------------------------------------------|

 |               |               |               |                
|----------------0---------------3---------------5---------------|
|1---------------------------------------------------------------|
|----------------------------------------------------------------|
|----------------------------------------------------------------|

 |               |               |               |                
|6---------------5---------------3---------------0---------------|
|----------------------------------------------------------------|
|----------------------------------------------------------------|
|----------------------------------------------------------------|

 |               |               |               |                
|3---------------1---------0-------------------------------------|
|--------------------------------3-------------------------------|
|----------------------------------------------------------------|
|----------------------------------------------------------------|

 |               |               |               |                
|3---------------1---------0---------------------0---------------|
|--------------------------------3-------------------------------|
|----------------------------------------------------------------|
|----------------------------------------------------------------|

 |               |               |               |                
|--------------------------------3---------------5---------------|
|1---------------------------------------------------------------|
|----------------------------------------------------------------|
|----------------------------------------------------------------|

 |               |               |               |                
|6---------------5---------------3---------------0---------------|
|----------------------------------------------------------------|
|----------------------------------------------------------------|
|----------------------------------------------------------------|

 |               |               |               |                
|----------------------------------------------------------------|
|3---------------------------------------------------------------|
|----------------------------------------------------------------|
|----------------------------------------------------------------|

 |               |               |               |                
|----------------------------------------------------------------|
|----------------------------------------------------------------|
|----------------------------------------------------------------|
|----------------------------------------------------------------|

 |               |               |               |                
|3---------------1-------------------------------0---------------|
|--------------------------------3-------------------------------|
|----------------------------------------------------------------|
|----------------------------------------------------------------|

 |               |               |               |                
|3---------------1-------------------------------0---------------|
|--------------------------------3-------------------------------|
|----------------------------------------------------------------|
|----------------------------------------------------------------|

 |               |               |               |                
|3-----------------------------------------------0---------------|
|--------------------------------3-------------------------------|
|----------------------------------------------------------------|
|----------------------------------------------------------------|

 |               |               |               |                
|3---------------1-------------------------------0---------------|
|--------------------------------3-------------------------------|
|----------------------------------------------------------------|
|----------------------------------------------------------------|

 |               |               |               |                
|3---------------1-------------------------------0---------------|
|--------------------------------3-------------------------------|
|----------------------------------------------------------------|
|----------------------------------------------------------------|

 |               |               |               |                
|3---------------1-------------------------------0---------------|
|--------------------------------3-------------------------------|
|----------------------------------------------------------------|
|----------------------------------------------------------------|

 |               |               |               |                
|----------------------------------------------------------------|
|----------------------------------------------------------------|
|----------------------------------------------------------------|
|----------------------------------------------------------------|

 |               |               |               |                
|----------------------------------------------------------------|
|----------------------------------------------------------------|
|----------------------------------------------------------------|
|----------------------------------------------------------------|

 |               |               |               |                
|----------------0---------------3---------------5---------------|
|1---------------------------------------------------------------|
|----------------------------------------------------------------|
|----------------------------------------------------------------|

 |               |               |               |                
|----------------2---------------5---------------7---------------|
|3---------------------------------------------------------------|
|----------------------------------------------------------------|
|----------------------------------------------------------------|

 |               |               |               |                
|3---------------0-------------------------------2---------------|
|--------------------------------3-------------------------------|
|----------------------------------------------------------------|
|----------------------------------------------------------------|

 |               |               |               |                
|3---------------0-------------------------------3---------------|
|--------------------------------3-------------------------------|
|----------------------------------------------------------------|
|----------------------------------------------------------------|

 |               |               |               |                
|----------------0---------------3---------------5---------------|
|1---------------------------------------------------------------|
|----------------------------------------------------------------|
|----------------------------------------------------------------|

 |               |               |               |                
|6---------------5---------------3---------------0---------------|
|----------------------------------------------------------------|
|----------------------------------------------------------------|
|----------------------------------------------------------------|

 |               |               |               |                
|3-------------------------0---------------------0---------------|
|--------------------------------3-------------------------------|
|----------------------------------------------------------------|
|----------------------------------------------------------------|

 |               |               |               |                
|3---------------1---------0---------------------0---------------|
|--------------------------------3-------------------------------|
|----------------------------------------------------------------|
|----------------------------------------------------------------|

 |               |               |               |                
|----------------0---------------3---------------5---------------|
|1---------------------------------------------------------------|
|----------------------------------------------------------------|
|----------------------------------------------------------------|

 |               |               |               |                
|6---------------5---------------3---------------0---------------|
|----------------------------------------------------------------|
|----------------------------------------------------------------|
|----------------------------------------------------------------|

 |               |               |               |                
|----------------------------------------------------------------|
|3---------------------------------------------------------------|
|----------------------------------------------------------------|
|----------------------------------------------------------------|

 |               |               |               |                
|----------------------------------------------------------------|
|----------------------------------------------------------------|
|----------------------------------------------------------------|
|----------------------------------------------------------------|

 |               |               |               |                
|3---------------1-------------------------------0---------------|
|--------------------------------3-------------------------------|
|----------------------------------------------------------------|
|----------------------------------------------------------------|

 |               |               |               |                
|3---------------1-------------------------------0---------------|
|--------------------------------3-------------------------------|
|----------------------------------------------------------------|
|----------------------------------------------------------------|

 |               |               |               |                
|3-----------------------------------------------0---------------|
|--------------------------------3-------------------------------|
|----------------------------------------------------------------|
|----------------------------------------------------------------|

 |               |               |               |                
|3---------------1-------------------------------0---------------|
|--------------------------------3-------------------------------|
|----------------------------------------------------------------|
|----------------------------------------------------------------|

 |               |               |               |                
|3---------------1-----------------------------------------------|
|--------------------------------3-------------------------------|
|----------------------------------------------------------------|
|----------------------------------------------------------------|

 |               |               |               |                
|3-----------------------------------------------0---------------|
|--------------------------------3-------------------------------|
|----------------------------------------------------------------|
|----------------------------------------------------------------|

 |               |               |               |                
|3---------------------------------------------------------------|
|----------------------------------------------------------------|
|----------------------------------------------------------------|
|----------------------------------------------------------------|

 |               |               |               |                
|----------------------------------------------------------------|
|----------------------------------------------------------------|
|----------------------------------------------------------------|
|----------------------------------------------------------------|

 |               |               |               |                
|----------------0---------------3---------------5---------------|
|1---------------------------------------------------------------|
|----------------------------------------------------------------|
|----------------------------------------------------------------|

 |               |               |               |                
|----------------2---------------5---------------7---------------|
|3---------------------------------------------------------------|
|----------------------------------------------------------------|
|----------------------------------------------------------------|

 |               |               |               |                
|3---------------0-------------------------------2---------------|
|--------------------------------3-------------------------------|
|----------------------------------------------------------------|
|----------------------------------------------------------------|

 |               |               |               |                
|3---------------0-------------------------------3---------------|
|--------------------------------3-------------------------------|
|----------------------------------------------------------------|
|----------------------------------------------------------------|

 |               |               |               |                
|----------------0---------------3---------------5---------------|
|1---------------------------------------------------------------|
|----------------------------------------------------------------|
|----------------------------------------------------------------|

 |               |               |               |                
|----------------2---------------5---------------7---------------|
|3---------------------------------------------------------------|
|----------------------------------------------------------------|
|----------------------------------------------------------------|

 |               |               |               |                
|3---------------0-------------------------------2---------------|
|--------------------------------3-------------------------------|
|----------------------------------------------------------------|
|----------------------------------------------------------------|

 |               |               |               |                
|3---------------3-----------------------------------------------|
|----------------------------------------------------------------|
|----------------------------------------------------------------|
|----------------------------------------------------------------|


Created with TablEdit http://www.tabledit.com/