Bass Tabs Héroe (Bass Tabs) Enrique Iglesias  

27
[8]
   0

INTRO
G|-------------------------|
D|-------------------------|
A|-----------3-3--5-5------|
E|-3-3--0-0----------------|

Coro

G|-------------------------|
D|-------------------------|
A|----5---3---10-----------|
E|-3-----------------------|


verso
G|-------------------------|
D|-------------------------|
A|-10/---------3-3--5----10|
E|-----3--0-0--------------|

G|-------------------------|
D|-------------------------|
A|----------3-3--5-5-------|
E|-3-3--0-0----------------|

coro2
G|-------------------------|
D|-------------------------|
A|------55-5-33--7-9-10----|
E|-33-3--------------------|

G|-------------------------|
D|-------------------------|
A|---5-5--33--5------------|
E|-3------------0-1-3------|

G|-------------------------|
D|-------------------------|
A|---55-5-33-3--5----------|
E|-3-----------------------|

el solo de guitarra es lo mismo que el intro
y despues se sigue con las demas figuras hasta 
el final


Esta cancion es pata ti DIANA la mujer que entro en mi
corazon para adueñarse de el, tu que aunque sin estar siempre
estas ahi, con todo mi amor esta cancion es para ti

Fuente: http://acordes.lacuerda.net/enrique_iglesias/heroe-6.shtml