Bass Tabs Sembreak (Bass Tabs) Eraserheads  

107
[1]
   1

-----------------------------------------------------------------------------
			     Sembreak - Eraserheads
-----------------------------------------------------------------------------


Tuning: Drop D

Verse 1: “Bad trip talaga tong MERALCO…”

G|----------------------------------------------------|
D|----------------------------------------------------|
A|---------------------------------3-3-3-3-3-3-3-3-3~-|
D|-2-2-2-2-2-2-2-2-2-2-2-2-2-2-2-2--------------------|

“Walang silbi sa bahay kundi bumabad sa telepono…”

G|-------------------------------------|
D|-------------------------------------|
A|-------------------------------------|
D|-5-5--3-3-5-5--3-3-5-5--3-3-5-5--3-3-|

“O kaya’y kasama ang buong barkada nakatambay sa may kanto…”

G|--------------------------------------------------------------------------|
D|--------------------------------------------------------------------------|
A|---------------------------------3-3-3-3-3-3-3-5-5-5-5-5-5-5-5-5-10-10-10-|
D|-2-2-2-2-2-2-2-2-2-2-2-2-2-2-2-2------------------------------------------|

G|-------------|
D|-------------|
A|-10-10-10-10-|
D|-------------|

Chorus: “Naaalala kita pag umuulan…”

G|------------------------------------------------------| Repeat this tab
D|------------------------------------------------------| twice…
A|-3-3--3---------------------3-3--3--------------------|
D|--------5-5--3-3-3--6-8-10---------5-5--3-3-3--6-8-10-|

“Ilang bukas pa ba?”

G|---------------------------------------------------------|
D|-------2/4-2-2-------4/6-4-4-------5/7-5-5---------------|
A|-4-4-4---------4-4-4---------5-5-5---------2-2-2-2-2-2-2-|
D|---------------------------------------------------------|

“Bawat oras binibilang…”

G|--------------------------------------------------------------------------|
D|--------------------------------------------------------------------------|
A|-3-3-3-3-3-3-3-3-4-2-2-2-2-2-2-2-2-3-3-3-3-3-3-3-3-4-2-2-2-2-2-2-2-2-3-3--|
D|--------------------------------------------------------------------------|

G|---------------------------------------------|
D|---------------------------------------------|
A|-3-3-3-3-3-3-5-5-5-5-5-5-5-5-5-5-5-5-5-5-5-5-|
D|---------------------------------------------|

Verse 2: “May gas wala namang kotse…”

G|--------------------------------------------------------------------------|
D|--------------------------------------------------------------------------|
A|-------------------------------------------------------3-3-3-3-3-3-3-3-3--|
D|-5-5--3-3-5-5--3-3-2-2-2-2-2-2-2-2-2-2-2-2-2-2-2-2-2-2--------------------|

“Sana ay may pasok na para at least meron akong baon…”

G|--------------------------------------------------------------------------|
D|--------------------------------------------------------------------------|
A|-----------------------------------------------------------------------3--|
D|-5-5--3-3-5-5--3-3-5-5--3-3-5-5--3-3-2-2-2-2-2-2-2-1-0-0-0-0-0-0-0-4-2----|

G|----------------------------------------------------|
D|----------------------------------------------------|
A|-3-3-3-3-3-3-3-5-5-5-5-5-5-5-5-10-10-10-10-10-10-10-|
D|----------------------------------------------------|

(Repeat Chorus)

Verse 3: “Walang kayakap kundi gitara…”

G|---------------------------------------------------------------------|
D|------10/12-10/12------10/12-10/12------10/12-10/12------10/12-10/12-|
A|-10~--------------10~--------------10~--------------10~--------------|
D|---------------------------------------------------------------------|

“Hanggang sa mabutas itong maong ko saka bibili ulit ng bago…”

G|--------------------------------------------------|
D|--------------------------------------------------|
A|-9-9-9-9-9-9-9-9-9-7-5-3-0-0-3-3-3-3-3-3-3-3-3-3~-|
D|--------------------------------------------------|

“Hanggang dito na lang ang liham ko…”

G|-----------------------------------------------------|
D|-----------------------------------------------------|
A|------3/5-3/5------3/5-3/5------3/5-3/5------3/5-3/5-|
D|-5-5----------5-5----------5-5----------5-5----------|

“Saka na lang pala yung utang ko pag nagkita na lang uli tayo…”

G|--------------------------------------------------------------------------|
D|--------------------------------------------------------------------------|
A|------------------------------3-3-3-3-3-3-3-3-5-5-5-5-5-5-5-5-5-10-10-10--|
D|-5-5-5-5-5-5-5-5-5-9-11-5-2-2---------------------------------------------|

G|-------------|
D|-------------|
A|-10-10-10-10-|
D|-------------|

(Repeat Chorus) Then G|---------------|
                     D|---------------|
                     A|-9-9-9-9-9-9-9-|
                     D|---------------|

Outro: “Naaalala kita…”

G|--------------------------------------------------------| Repeat this until
D|--------------------------------------------------------| fade…
A|-3-3--3----------------------3-3--3---------------------|
D|--------5-5--3--3-3--6-8-10---------5-5--3--3-3--6-8-10-|

Fuente: http://www.azchords.com/e/eraserheads-tabs-1347/sembreakbass-tabs-462752.html