Bass Tabs Before You Accuse Me (Bass Tabs) Eric Clapton  

138
[0]
   1

-------------------------------------------------------------------------------
			     Before You Accuse Me - Eric Clapton
-------------------------------------------------------------------------------


Tuning: EADG

G|---------------------------------------------------------------------------|
D|----------------------------------------------------0-1-2------------------|
A|-3-3-3-3-3-3-3-3-----------------3-3-3-3-3-3-3-3--3------------------------|
E|-----------------1-1-1-1-1-1-1-1--------------------------1-1-1-1-1-1-1-1-1-

|---------------------------------------------------------------------------|
|---------------------------------------------------------------------------|
|---------------3-3-3-3-3-3-3-3-3-3-3-3-3-3-3-------------------------------|
|1-1-1-1-1-1-1--------------------------------3-3-3-3-3-3-3-3-1-1-1-1-1-1-1-1-

|---------------------------------------------------------------------------|
|---2-3-4-5-3-4-5-----------------------------------------------------------|
|-3-------------------------------------------------------------------------|
|---------------------------------------------------------------------------|

This is pretty much how the song goes.... the last bit is played a bit slower the usual.

The ending/outro:

|---------------------------------------------------------------------------|
|---------------------------------------------------------------------------|
|-3---------------4-------3-------------------------------------------------|
|---0-1-2-3-----------------------------------------------------------------|

Fuente: http://www.azchords.com/e/ericclapton-tabs-1348/beforeyouaccuseme-tabs-395225.html