Bass Tabs Breathe No More (Bass Tabs) Evanescence  

20
[0]
   0

Boring. but if you want to know it...

Verse: (at 00:26)
G|------------------------------------------------|
D|------------------------------------------------|
A|------------------------------------------------|
E|--7-----3--5-7-----3--5-7-----3--5-7-----3--5---|

Pre-Chorus:
G|------------------------------------------------|
D|------------------------------------------------|
A|-------------2------0------4-----------0--------|
E|--2-----3-------------------------3-------------|

Chorus
G|------------------------------------------------|
D|------------------------------------------------|
A|--------0-----------0------2-----0-----2------0-|
E|--3-----------3---------------------------------|

Verse:
G|------------------------------------------------|
D|------------------------------------------------|
A|------------------------------------------------|
E|--7-----3--5-7-----3--5-7-----3--5-7-----3--5---|

G|------------------------------------------------|
D|------------------------------------------------|
A|------------------------------------------------|
E|--7-----3--5-7-----3--5-7-----3--5-7-----3--5---|

G|--------------------------|
D|--------------------------|
A|--------------------------|
E|--7-----3--5-7-----3--5---|

Pre-Chorus:
G|------------------------------------------------|
D|------------------------------------------------|
A|-------------2------0------4-----------0--------|
E|--2-----3-------------------------3-------------|

Chorus:
G|------------------------------------------------|
D|------------------------------------------------|
A|--------0-----------0------2-----0-----2------0-|
E|--3-----------3---------------------------------|

G|------------------------------------------------|
D|------------------------------------------------|
A|--2-----0-----2-----0------2-----0-----2------0-|
E|------------------------------------------------|

Enjoy