Bass Tabs Haunted (Bass Tabs) Evanescence  

31
[0]
   0

this is the right version bass of haunted i'm bassit..

accords:(g,d,a,e)

intro                                   x2
G|----------------------------------------|
D|--------9-8---------10-9----------------|
A|-----7-------10-9---------10-9--7-------|
E|-----------------8----------------------|

verse

G|----------------------------------------|
D|----------------------------------------|repeat as needed
A|----7-7-7-77--7-7-7-77--7-7-7-77--------|
E|----------------------------------------|

chorus
G|--------9--------9----------------7------7-----|-----------------------|
D|-----------------------------------------------|-----------------------|
A|---7------77--------7-7---75-----55-------55-5-|55-5---2-2-2-2/5/7-----|
E|-----------------------------------------------|-----------------------|

solo part(when guitar solo the bass play this)
G|---------4------4-----------6-------6---|
D|----------------------------------------|repeat as needed
A|---22-----22------2-224--------44-------|
E|----------------------------------------|


that's it is very easy