Bass Tabs Whisper (Bass Tabs) Evanescence  

14
[0]
   0

Band- Evanescence
Song- Whisper

intro
F|--------------------------------------------------------||
C|--------------------------------------------------------||
G|-7-8-7-8-7h8p5b-----------------------------------------||
D|0-0-0-0-------------------------------------------------||
A|--------------------------------------------------------||

F|--------------------------------------------------------||
C|--------------------------------------------------------||
G|-7-8-7-8-7-8-7-5-7--------------------------------------||
D|0-0-0---------------------------------------------------||
A|--------------------------------------------------------||

F|--------------------------------------------------------||
C|--------------------------------------------------------||
G|-7-8-7-8------------------------------------------------||
D|-----------10b------------------------------------------||
A|5-5-5-5-5h6---------------------------------------------||

F|--------------------------------------------------------||
C|--------------------------------------------------------||
G|-7-8-7-8-7-8-7-5----------------------------------------||
D|----------------8---------------------------------------||
A|5-5-5---------------------------------------------------||

1st verse

A|----xxxxxx------xxxxxx---------------||
catch me as I fall

A|------------xxxxxx----------------x--||
say you're here and it's all over now

A|-----x-----------------xxx-----------||
speaking to the atmosphere

A|----------xxxxxx-----------------x---||
no one's here and I fall into myself

A|-----------------x-------------------||
this truth drives me

A|-xxxxxx------------------------------||
into madness

A|-------------------------------------||
I know I can stop the pain if I will it all away

A|xxxxxx-------------------------------||
if I will it all away

chorus x2
F|--------------------------------------------------------||
C|--------------------------------------------------------||
G|--------------------------------------------------------||
D|-8-----8-5----------------------------------------------||
A|5-3-------3---------------------------------------------||

after play the chorus at first time
F|--------------------------------------------------------||
C|--------------------------------------------------------||
G|-7-8-7-8-7h8p5b-----------------------------------------||
D|--------------------------------------------------------||
A|5-5-5-5-------------------------------------------------||

F|--------------------------------------------------------||
C|--------------------------------------------------------||
G|-7-8-7-8-7-8-7-5-7--------------------------------------||
D|--------------------------------------------------------||
A|5-5-5---------------------------------------------------||

2nd verse
A|-----------x-------------xxx---------||
I'm frightened by what I see

A|--------xxxxxx-----------------------||
but somehow I know that there's much more to come

A|-------------------------------------||
inmobilized by my fears

A|-----------xxxxxx--------------------||
and soon to be blinded by tears
A|-------------------------------------||
I...can stop the pain if I will it all away

A|xxxxxx-------------------------------||
if I will it all away


repeat chorus
bridge x8
F|--------------------------------------------------------||
C|--------------------------------------------------------||
G|--------------------------------------------------------||
D|--------------------------------------------------------||
A|x5-xx5-x5-xx5-------------------------------------------||

guitar and bass solo
F|--------------------------------------------------------||
C|--------------------------------------------------------||
G|--------------------------------------------------------||
D|7b-7p5h7--8b-8p7h8--------------------------------------||
A|------------------10b-10p8h10---------------------------||

F|--------------------------------------------------------||
C|--------------------------------------------------------||
G|--------------------------------------------------------||
D|7b-7p5h7------------------------------------------------||
A|--------8b-8p7h8--10b-8p7h8----8p7-8p7-8p7b-77----------||

F|--------------------------------------------------------||
C|--------------------------------------------------------||
G|--------------------------------------------------------||
D|----------------7-875-10b-10-10-10-8-7h8p5--777-8-7b--||
A|5-87/8-10-87/8----------------------------------------||

repeat chorus

end(servatis a periculum,servatis a maleficum) x16
F|-------------------------------------||
C|-------------------------------------||
G|-------------------------------------||
D|-------------------------------------||
A|xxx-xxxxx----------------------------||