Bass Tabs For Always Forever (Bass Tabs) Every Avenue  

33
[1]
   1

I'm almost positive this is right. Have fun!

Intro x1

G ------------------------------------------------------------------------|
D ------------------------------------------------------------------------|
A -00-11----1-3-0-3---00-11----1-3------00-11---1-3-0-3--00-11----3-333---|
D --------3------------------3-----5-3--------3-----------------3---------|

Verse 1 (Comes in at 0:26)x1

G -------------------------------------------------------------------------|
D -------------------------------------------------------------------------|
A -------------------00000000-00000035----------33333333-11111111-33333333-|
D -33333333-33333355-------------------00000000----------------------------|

Pre-Chorus

G ------------------|
D ------------------|
A -----1-11-3-33----|
D -0-00----------33-|      x3


G -------------------------|
D -------------------------|
A -1111111133333333--------|
D -------------------------|  x1

Chorus x2

G -------------------------------------------|
D --------------------3----------------------|
A ---------0--1111-11------------33333333----|
D -3333-33--------------00000000-------------|

Post Chorus

G ----------------------------------------------|
D ----------------------------------------------|
A -111-111---------000-000---------111-111-1----|
D ---------333-333---------000-000--------------|

Verse 2 x2

G -------------------------------------------------------------------------|
D -------------------------------------------------------------------------|
A -------------------00000000-00000035----------33333333-11111111-33333333-|
D -33333333-33333355-------------------00000000----------------------------|

Pre-Chorus

G ------------------|
D ------------------|
A -----1-11-3-33----|
D -0-00----------33-|      x3


G -------------------------|
D -------------------------|
A -1111111133333333--------|
D -------------------------|  x1

Chorus x2

G -------------------------------------------|
D --------------------3----------------------|
A ---------0--1111-11------------33333333----|
D -3333-33--------------00000000-------------|

Post Chorus x1

G ---------------------------------------------------|
D ---------------------------------------------------|
A -111-111---------000-000---------111-111-111-111---|
D ---------333-333---------000-000-------------------|

Solo x1

G ------------------------------------------------------------------------|
D ------------------------------------------------------------------------|
A -00-11----1-3-0-3---00-11----1-3------00-11---1-3-0-3--00-11----3-333---|
D --------3------------------3-----5-3--------3-----------------3---------|

Bridge x1

G ------------------------------------------------------------------------|
D ------------------------------------------------------------------------|
A -00-11----1-3-0-3---00-11----1-3------00-11---1-3-0-3--00-11----3-333---|
D --------3------------------3-----5-3--------3-----------------3---------|

Break

Enter 2:49

G -777-333-5555-----------------------------------------|
D --------------3-2-------------------------------------|
A ------------------11111111-33333333-11111111--4--4----|
D ------------------------------------------------------|

Chorus x2

G -------------------------------------------|
D --------------------3----------------------|
A ---------0--1111-11------------33333333----|
D -3333-33--------------00000000-------------|

Post Chorus x1

G ---------------------------------------------------|
D ---------------------------------------------------|
A -111-111---------000-000---------111-111-111-111---|
D ---------333-333---------000-000-------------------|

G -----------------------------|
D -----------------------------|
A -00-11----1-3-0-3---00-11----|
D --------3--------------------|

Fuente: http://www.azchords.com/e/everyavenue-tabs-45685/foralwaysforever-tabs-370548.html