Bass Tabs Piel canela (Bass Tabs) Eydie Gormé  

44
[6]
   0

        G-------------------------------------
	D-----77---77----77---77---77---77----
	A---7----7-----5----5----57---7----5--
	E-------------------------------------
	-Intro de guitarra- Em-A7-Em-A7-A7-D-A7-Em-A7-Em-A7-D 

-----------------------------------------
-----------------------------------------
--------7------------------------5-------
--------------------5-------------55-----
	Em          A7           D
Que se quede el infinito sin estrellas 

	------------------------------------------
	------------------------------------------
	--------7----------------------------5-54-
	-----------------------5------------------
		Em             A7            D
	O que pierda el ancho mar su inmensidad

----------------------------------------
----------------------------------------
-----------99---------------------7-----
---------7-------------------------77--- 
         B7			  Em
Pero el negro de tus ojos que no muera

	-----------------------------------------
	-----------------------------------------
	-----------77----------------------5-----
	---------5---------------------------55-- 
		A7    		 	   D
	Y el canela de tu piel se quede igual

-----------------------------------------
-----------------------------------------
-------7----------------------5----------
-------------------5------------55-------
       Em          A7         D
Si perdiera el arcoiris su belleza

	-----------------------------------------
	-----------------------------------------
	--------7--------------------------------
	-------------------5------------5-54----- 
	        Em         A7           D
	Y las flores su perfume y su color

-----------------------------------------
-----------------------------------------
--------99------------------7------------
------7----------------------77----------
      B7		    Em
No seria tan inmensa mi tristeza

	-----------------------------------------
	-----------------------------------------
	---------77-----------------------5------
	--------5--------------------------------
	        A7                        D
	Como aquella de quedarme sin tu amor


-----------------------------------------
------------------77---------------------
------------7---------------7------------
-----------------------------------------
            Em      A7      Em
Me importas tu    y tu    y tu

	----------------------------------------
	-77-----------------77------------------
	-------------5---------------5----------
	---------------------------------------- 
	  A7         D      A7       D   A7
	Y solamente tu   y tu     y tu

-----------------------------------------
------77------------77--------77---------
------------7----------------7-----------
-----------------------------------------
            Em      A7      Em A7
Me importas tu    y tu    y tu

	-----------------------------------------
	-------------------77--------------------
	-----------------5----554----------------
	-------------------------7---------------
	                 D 
	Y nadie mas que tu

-----------------------------------------
-----------------------------------------
-------99-----------7--------------------
------7--------------77------------------
      B7            Em 
Ojos negros piel canela

	-----------------------------------------
	-----------------------------------------
	----------------------4-5----------------
	---------5----5-5-7---------------------- 
	         A7             D
	Que me llegan a desesperar


Me importas tu... 

-Intro de guitarra- Em-A7-Em-A7-A7-D-A7-Em-A7-Em-A7-D 

ojos negros piel canela...

Me importas tu ...

-Intro de guitarra-Em-A7-Em-A7-A7-D-A7-Em-A7-Em-A7-D 

(aqui esta la transcripcion del bajo
alguna duda a mi e-mail)

Fuente: http://acordes.lacuerda.net/eydie_gorme/piel_canela-2.shtml