Bass Tabs Give Him Up (Bass Tabs) Faber Drive  

14
[0]
   0



G|------------------------------------------------| (x2)
D|------------------------------------------------|
A|--0--0--0----------------3--3--3----------------|
E|-----------1--1--1-1--1-----------3--3--3-3--3--|


G|-----------------------------------------------------------------|
D|-----------------------------------------------------------------|
A|-0-0-0-0-0-0-0-0-----------------3-3-3-3-3-3-3-3-----------------|
E|-----------------1-1-1-1-1-1-1-1-----------------3-3-3-3-3-3-3-3-|


G|------------------------------------------------| (x4)
D|------------------------------------------------|
A|--0--0--0----------------3--3--3----------------|
E|-----------1--1--1-1--1-----------3--3--3-3--3--|


G|----------------------|
D|----------------------|
A|-0-0-0-0-0-0-0-0--3-3-|
E|----------------------|



G|---------------------------------------------------------------------|
D|---------------------------------------------------------------------| (x2)
A|---------------------------------------------------------------------|
E|-3-3-3-3-3-3-3-3-5-5-5-5-8--8--8--8--1-1-1-1-1-1-1-1-1-1-1-1-1-1-1-1-|


G|------------------------------------------------|
D|------------------------------------------------|
A|--0--0--0----------------3--3--3----------------|
E|-----------1--1--1-1--1-----------3--3--3-3--3—-|


G|--------------------------------------|
D|--------------------------------------|
A|--0--0--0----------------3--3--3------|
E|-----------1--1--1-1--1-----------3---|


G|------------------------------------------------| (x4)
D|------------------------------------------------|
A|--0--0--0----------------3--3--3----------------|
E|-----------1--1--1-1--1-----------3--3--3-3--3--|

      

G|--------------------------------------------------------|
D|--------------------------------------------------------|
A|--------------------------------------------------------|
E|-1-1-1-1-1-1-1-1-1-1-1-1-1-1-1-1-1-1-1-1-1-1-1-1--3-3---|


G|---------------------------------------------------------------------|
D|---------------------------------------------------------------------| (x2)
A|---------------------------------------------------------------------|
E|-3-3-3-3-3-3-3-3-5-5-5-5-8--8--8--8--1-1-1-1-1-1-1-1-1-1-1-1-1-1-1-1-|

|
G|----------------------------------------------| (x2)
D|----------------------------------------------|
A|--0--0--0---------------3--3--3---------------|
E|-----------1--1---1--1-----------3--3---3--3--|

   Listen for this part
     

G|---------------------------------------------------| (x3)
D|---------------------------------------------------|
A|---------------------------------------------------|
E|-3-3-3-3-3-3-3-3-5-5-5-5-8-8-8-8-1-1-1-1-1-1-1-1---|


      

G|-----------------------------------------------------|
D|-----------------------------------------------------|
A|-0-0-0-0-0-0-0-0-0-0-0-0-0-0-0-0-0-0-0-0-0-0-0-0-----|
E|-----------------------------------------------------|


G|------------------------------------------------|
D|------------------------------------------------|
A|--0--0--0----------------3--3--3----------------|
E|-----------1--1--1-1--1-----------3--3--3-3--3—-|


G|---------------------------------------------------------------------|
D|---------------------------------------------------------------------| (x4)
A|---------------------------------------------------------------------|
E|-3-3-3-3-3-3-3-3-5-5-5-5-8--8--8--8--1-1-1-1-1-1-1-1-1-1-1-1-1-1-1-1-|


G|------------------------------------------------|
D|------------------------------------------------|
A|--0--0--0----------------3--3--3----------------|
E|-----------1--1--1-1--1-----------3--3--3-3--3—-|


G|-----------------------------------------|
D|-----------------------------------------|
A|--0--0--0----------------3--3--3---------|
E|-----------1--1--1-1--1-----------3--1—-|

Fuente: http://www.azchords.com/f/faberdrive-tabs-37867/givehimup-tabs-312266.html