Bass Tabs Tongue Tied (Bass Tabs) Faber Drive  

44
[1]
   1

   Song: Tongue Tied
   Band: Faber Drive
Bassist: Krikit
  Album: Seven Second Surgery


Here is tongue tied, i LOVE this song, great song. Please remember to rate and coment,
if you DONT HAVE THEIR CD OR HAVENT SEEN EM LIVE..... GOO!!! NOW!!!! fricken AWESOME band
down to earth and usually stick around after shows to meet the audience!!! Anyways heres 
tab for those who are "Tabbingly Challenged", enjoy.


Verse: 0:11
G:------------------------------------:
D:------------------------------------:
A:--4---------------------------------:
E:----------4-------6---4---2---------:


Pre Chorus:
G:---------------------:
D:---------------------:
A:------------------4--:
E:--6---4---2---4------:


Chorus:
G:------------------------------------:
D:------------------------------------:
A:--44444444--------------------------:
E:----------444444446666666622224444--:

G:-------------------------------------:
D:-------------------------------------:
A:--44444444------------------------2--:
E:----------444444446666666622224444---:


Verse

Pre-Chrous

Chorus

Bridge Play twice as fast
G:--------------------------------------------------------------------:
D:--------------------------------------------------------------------:
A:--4444444444444444--------------------------------------------------: 2x
E:------------------444444444444444466666666666666662222222244444444--:

G:----------------:
D:----------------:
A:--4--4-4--4/7~--:
E:----------------:


Chorus 1 time


Outro Again play twice as fast
G:--------------------------------------------------------------------:
D:--------------------------------------------------------------------:
A:--4444444444444444--------------------------------------------------:
E:------------------444444444444444466666666666666662222222244444444--:


End Note:
G:------:
D:------:
A:--4~--:
E:------:


There it is. pretty easy, PLease rate and leave a coment!


CHEERS

Fuente: http://www.azchords.com/f/faberdrive-tabs-37867/tonguetied-tabs-312272.html