Bass Tabs Drivin' Wheel (Bass Tabs) Foghat  

56
[0]
   0

#----------------------------------PLEASE NOTE---------------------------------#
#This file is the author's own work and represents their interpretation of the #
#song. You may only use this file for private study, scholarship, or research. #
#------------------------------------------------------------------------------#

DRIVIN WHEEL (Bassline)





 

 

Gtr I (E A D G) - 'Staff'


  Q=154
 4/4
  Gtr I
  W          E E +S  S E E E Q    E E E E E E +S  S E   E E E E +S  S E E E
|----------|--------------------|---------------------|---------------------|
|----------|-0-0-(0)---0-0-0-0--|---0-3---------------|-3---------------3---|
|----------|--------------------|-------5-5-5-(5)---5-|---5-5-5-(5)---5---5-|
|----------|--------------------|---------------------|---------------------|


  E E E E E E E E   E E E E +S  S E E E
|-----------------|---------------------|
|-----------------|---------------7-5-3-|
|-3-3-3-3-3-3-----|---2-3-5-(5)---------|
|-------------1-2-|-3-------------------|


  E E E E E E +S  S E   E E E E +S  S E E E
|---------------------|----------------------|
|-----3---------------|-3---------------3----|
|-5-5---5-5-5-(5)---5-|---5-5-5-(5)---5---5--|
|---------------------|----------------------|


  E E E E E E E E   E E E E +S  S E E E
|-----------------|---------------------|
|-----------------|---------------7-5-3-|
|-3-3-3-3-3-3-----|---2-3-5-(5)---------|
|-------------1-2-|-3-------------------|


  E E E E E E +S  S E   E E E E +S  S E E E
|---------------------|----------------------|
|-----3---------------|-3---------------3----|
|-5-5---5-5-5-(5)---5-|---5-5-5-(5)---5---5--|
|---------------------|----------------------|


  E E E E E E E E   E E E E +S  S E E E   E E E E E E E E   E E E E E E E E
|-----------------|---------------------|-----------------|------------------|
|-----------------|---------------------|-----4---7---5-4-|-----2---5---3-2--|
|-3-3-3-3-3-3-----|---2-3-5-(5)---------|-----------------|------------------|
|-------------1-2-|-3-------------2-3-4-|-5-5---5---5-----|-3-3---3---3------|


  E E E E E E E E   E E E E E E E E   E E E E E E E E   E E E E E E E E
|-----------------|-----------------|-----------------|-----------------|
|-----4---7---5-4-|-----2---5---3-2-|-----4---7---5-4-|-----------------|
|-0-0-------------|-----------------|-0-0-------------|-----2-2-3-3-4-4-|
|-------5---5-----|-3-3---3---3-----|-------5---5-----|-3-3-------------|


  Q  E E E E E E   +E  E Q  E E Q    Q  E E E E E E   +E  E Q  E E Q
|------------0---|-----------------|------------0---|-----------------|
|----4-----2-----|-----------------|----4-----2-----|-----------------|
|-5----5-3-------|-------2--3-3-4--|-5----5-3-------|-------2--3-3-4--|
|--------------3-|-(3)-3-----------|--------------3-|-(3)-3-----------|


  Q  E E E E E E   +E  E Q  E E Q    E E E E E E Q    +W
|------------0---|-----------------|-----2----------|--------|
|----4-----2-----|-----------------|---4-----2-4----|--------|
|-5----5-3-------|-------2--3-3-4--|-5-----3--------|--------|
|--------------3-|-(3)-3-----------|-------------3--|-(3)----|


  +H     +H       W          W          H    Q  E E
|---------------|----------|----------|-------------|
|---------------|----------|----------|-------------|
|---------------|----------|----------|---------5-5-|
|-(3)----(3)----|----------|----------|-------------|


  E E E E Q  Q    E E E E E E +S  S E   E E E E +S  S E E E   E E E E E E E E
|---------------|---------7-7-(7)-----|-----7-7-(7)---------|-----5---5---5---|
|---------------|-----3---------------|-3---------------3---|-----------------|
|-5-5-5-5-5-----|-5-5---5-----------5-|---5-----------5---5-|-3-3---3---3---3-|
|---------------|---------------------|---------------------|-----------------|


  E E E E +S  S E E E   E E E E E E +S  S E
|---------------------|---------7-7-(7)-----|
|---------------7-5-3-|-----3---------------|
|---2-3-5-(5)---------|-5-5---5-----------5-|
|-3-------------------|---------------------|


  E E E E +S  S E E E   E E E E E E E E
|-----7-7-(7)---------|-----5---5---5----|
|-3---------------3---|------------------|
|---5-----------5---5-|-3-3---3---3---3--|
|---------------------|------------------|


  E E E E +S  S E E E   E E E E E E E E   E E E E E E E E   E E E E E E E E
|---------------------|-----------------|-----------------|------------------|
|---------------------|-----4---7---5-4-|-----2---5---3-2-|-----4---7---5-4--|
|---2-3-5-(5)---------|-----------------|-----------------|-0-0--------------|
|-3-------------2-3-4-|-5-5---5---5-----|-3-3---3---3-----|-------5---5------|


  E E E E E E E E   E E E E E E E E   E E E E E E E E   Q  E E E E E E
|-----------------|-----------------|-----------------|------------0---|
|-----2---5---3-2-|-----4---7---5-4-|-----------------|----4-----2-----|
|-----------------|-0-0-------------|-----2-2-3-3-4-4-|-5----5-3-------|
|-3-3---3---3-----|-------5---5-----|-3-3-------------|--------------3-|


  +E  E Q  E E Q    Q  E E E E E E   +E  E Q  E E Q    Q  E E E E E E
|-----------------|------------0---|-----------------|------------0---|
|-----------------|----4-----2-----|-----------------|----4-----2-----|
|-------2--3-3-4--|-5----5-3-------|-------2--3-3-4--|-5----5-3-------|
|-(3)-3-----------|--------------3-|-(3)-3-----------|--------------3-|


  +E  E Q  E E Q    E E E E E E Q    +H     +H       W
|-----------------|-----2----------|---------------|------|
|-----------------|---4-----2-4----|---------------|------|
|-------2--3-3-4--|-5-----3--------|---------------|------|
|-(3)-3-----------|-------------3--|-(3)----(3)----|------|


  E E E E E E +Q     E E E E E E E E   E E E E E E E E   E E E E E E E E
|-----------7-(7)--|-----------------|-----------------|-----------------|
|-----3-2-0--------|-----2---5---3-2-|-----2---5---3-2-|-----2---5---3-2-|
|---5--------------|-----------------|-----------------|-----------------|
|------------------|-3-3---3---3-----|-3-3---3---3-----|-3-3---3---3-----|


  E E E E E E E E   E E E E E E E E   E E E E E E E E   E E E E E E E E
|-----------------|-----------------|-----------------|-----------------|
|-----2---5---3-2-|-----4---7---5-4-|-----4---7---5-4-|-----------------|
|-----------------|-0-0-------------|-----------------|-----4-4-5-5-6-6-|
|-3-3---3---3-----|-------5---5-----|-5-5---5---5-----|-5-5-------------|


  E E E E  E  E  E  E    E  E E E E E E E   E E Q  E E Q    E E E E E E E E
|---------------------|-------------------|---------------|-------2-----0---|
|---------------------|---------7-----5---|---------------|-----4-----2-----|
|-7-7-9-9-10-10-11-11-|-------9-----7-----|-----2--3-3-4--|-5-5-----3-------|
|---------------------|-10-10-----8-----3-|-3-3-----------|---------------3-|


  E E Q  E E Q    E E E E E E E E   E E Q  E E Q    E E E E E E E E
|---------------|-------2-----0---|---------------|-------------0---|
|---------------|-----4-----2-----|---------------|-----4-----2-----|
|-----2--3-3-4--|-5-5-----3-------|-----2--3-3-4--|-5-5---5-3-------|
|-3-3-----------|---------------3-|-3-3-----------|---------------3-|


  +E  E E E Q  E E   +E  E E E Q  E E   +E  E E E Q  E E   +E  E E E Q  E E
|------------------|------------------|------------------|------------------|
|------------------|------------------|------------------|------------------|
|------------------|------------------|------------------|----------------0-|
|-(3)-3-0-0-1----3-|-(3)-3-0-0-1----3-|-(3)-3-0-0-1----3-|-(3)-3-0-0-1------|


  +E  E E E Q  E E   +E  E E E Q  E E   +E  E E E Q  Q    Q  +S  S E +Q   Q
|------------------|------------------|-----------------|-2--(2)---0-(0)------|
|------------------|------------------|-----------------|-----------------2---|
|-(0)-0----------0-|-(0)-0----------0-|-(0)-0-----------|---------------------|
|-------2-2-3------|-------2-2-3------|-------2-2-3-----|---------------------|


  +Q   Q  +S  S E E E   +S  S E +Q   Q  +S  S E
|---------------------|-------2-(2)--0--(0)-----|
|-(2)--0--(0)---------|-----------------------2-|
|---------------3-2-0-|-(0)---------------------|
|---------------------|-------------------------|


  +Q.   E +Q   E E   Q  Q  H
|------------------|------------*|
|-(2)---0-(0)------|------------*|
|--------------3-2-|-0----------*|
|------------------|------------*|




--------------------------------------------------------------------------------


Duration Legend
---------------
W - whole; H - half; Q - quarter; E - 8th; S - 16th; T - 32nd; X - 64th; a - acciaccatura
+ - note tied to previous; . - note dotted; .. - note double dotted
Uncapitalized letters represent notes that are staccato (1/2 duration)
Irregular groupings are notated above the duration line
Duration letters will always appear directly above the note/fret number it represents the
duration for.  Duration letters with no fret number below them represent rests.  Multi-
bar rests are notated in the form Wxn, where n is the number of bars to rest for.  Low
melody durations appear below the staff

Tablature Legend
----------------
 h   - hammer-on
 p   - pull-off
 b   - bend
 pb  - pre-bend
 r   - bend release (if no number after the r, then release immediately)
 /  - slide into or out of (from/to "nowhere")
 s   - legato slide
 S   - shift slide
 - natural harmonic
[n]  - artificial harmonic
n(n) - tapped harmonic
 ~   - vibrato
 tr  - trill
 T   - tap
 TP  - trem. picking
 PM  - palm muting
n/  - tremolo bar dip; n = amount to dip
 n  - tremolo bar down
 n/  - tremolo bar up
/n  - tremolo bar inverted dip
 =   - hold bend; also acts as connecting device for hammers/pulls
  - volume swell (louder/softer)
 x   - on rhythm slash represents muted slash
 o   - on rhythm slash represents single note slash

Misc Legend
-----------
 |  - bar
||  - double bar
||o - repeat start
o|| - repeat end
*|  - double bar (ending)
 :  - bar (freetime)
 $  - Segno
 &  - Coda
Tempo markers -  = BPM(8/16=s8/s16), where s8 = swing 8ths, s16 = swing 16ths



--------------------------------------------------------------------------------