Bass Tabs 1039 (Album) (Bass Tabs) Green Day  

54
[0]
   0

1,039/smoothed Out Slappy Hour

Green Day

Bass Tabs


1. At The Library

Intro	   X3
G------------|-------------|
D------------|-------------|
A--5-5--3-3--|--2-2-2-2-2--|
E------------|-------------|

Verse
G-----------------|
D-----------------|
A------2-2-3-3-5--|
E--3-3------------|

Chorus	X3
G---------|-----------------------|
D---------|-----------------------|
A------5--|--3--3-3-3-3--5p3p2----|
E--0------|--------------------3--|
(Let each single note ring)

Bridge
G------------------------------------|
D------------------------------------|
A------------2h3h5p3p2------5-5-5-5--|
E--3----3--------------3-------------|

Outro
G-------------------------------|
D-------------------------------|
A--5-5--3-3--5-5--3-3--5-5-3-3--|
E-------------------------------|

Intro X1
Verse X4
(Rest...guitar solo thing)
Verse X8
Chorus X1
Verse X8
Chorus X1
Verse X8
Bridge X1
Verse X8
Outro X1


2. Disappearing Boy

Verse
G-----------------------------------------|
D-----------------------------------------|
A--------------------------------5-5-5-5--|
E--5-5-5-5-5-2-2-2-2-2-3-3-3-3-3----------|

2nd Verse
G-----------------------------------------|
D-----------------------------------------|
A--------------------------------5-5-7-5--|
E--5-5-5-5-5-2-2-2-2-2-3-3-3-3-3----------|

Chorus (Play it in order as you see it)
G----------------------------------------------------------------|
D----------------------------------------------------------------|
A--2-2-2-3-3-3-3---------2h3h5p3--2-2-2-3-3-3-3---------5-5-5-5--|
E----------------3-3-3-3------------------------3-3-3-3----------|

G----------------------------------------------------------------|
D----------------------------------------------------------------|
A--2-2-2-3-3-3-3---------2h3h5p3--2-2-2-3-3-3-3------------------|
E----------------3-3-3-3------------------------3-3-3-3-3-3-3-3--|

Bass Solo (Timing is a real bitch, let each note ring)
G--7--7-9--9-11-12-14-12-11-9-11/7---7-7--9-9--11-11-12-11--9---7------7-------------|
D------------------------------------------------------------------------------------|
A------------------------------------------------------------------------------------|
E-------------------------------------------------------------------------5-5-5-5-5--|

Verse X4
2nd Verse X1
Chorus X1
2nd Verse X2
Verse X4
Chorus X1
Bass Solo X1
2nd Verse X4
Chorus X1

3. Don't Leave Me


  INTRO

   G|-----------------------------------------------------------------|
   D|--------------------|--------------------------------------------|
   A|-----(GUITAR)-------|---17///////////-2----0-0---5-5--2--0-2-0---|
   E|-----------------------------------------------------------------|


   G|----------------|
   D|----------------|
   A|---2----0-0-5---|
   E|----------------|


  VERSE

   G|---------------------------------------------------------|
   D|---------------------------------------------------------|
   A|---2--2--0--0--5-5--2--0-2-0-2--2--0--0--5-5--2--0-2-0---|
   E|---------------------------------------------------------|


   G|--------------------------------------------|
   D|--------------------------------------------|
   A|---2--2--0--0--5-5--2--0-2-0-2--2--0--0-5---|
   E|--------------------------------------------|


   G|---------------------------------------------------------|
   D|---------------------------------------------------------|
   A|---2--2--0--0--5-5--2--0-2-0-2--2--0--0--5-5--2--0-2-0---|
   E|---------------------------------------------------------|


   G|-----------------------------------------------------|
   D|-----------------------------------------------------|
   A|---2--2--0--0--5-5--2--0-2-0-2--2--0--0--5-5--2--2---|
   E|-----------------------------------------------------|


  CHORUS x2

   G|-------------------------------------------------------------|
   D|-------------------------------------------------------------|
   A|-------------------------------------------------------------|
   E|---5--5--5-5-5-5--5-5--5-5-5-5-2--2--2-2-0-2--2-2--2-2-2-2---|

           Play this right after the first chorus.
       (the 9 and 7 can be heard if you listen closely)
   G|-------------------------------------------------7---|
   D|----------------------------------------------9------|
   A|---2--2--0--0--5-5--2--0-2-0-2--2--0--0--5-----------|
   E|-----------------------------------------------------|


  VERSE 2

  CHORUS 2 x4

  BRIDGE

   G|---------------------------------------------------------|
   D|---------------------------------------------------------|
   A|---2--2--0--0--5-5--2--0-2-0-2--2--0--0--5-5--2--0-2-0---| x2
   E|---------------------------------------------------------|


   G|-------------------------------------------------------------|
   D|-------------------------------------------------------------|
   A|-------------------------------------------------------------| x2
   E|---5--5--5-5-5-5--5-5--5-5-5-5-2--2--2-2-0-2--2-2--2-2-2-2---|


   G|-------------------------------------------------------------|
   D|-------------------------------------------------------------|
   A|-------------------------------------------------------------| x2
   E|---5~--------------------------2---------0-2--2-2--2-2-2-2---|


   G|---------------------------------------------|
   D|---------------------------------------------|
   A|---2--2--0--0--5-5--2--0-2-0-2--2--0--0--5---|
   E|---------------------------------------------|


  VERSE 3

  CHORUS 3 x4

  OUTRO

   G|------------------------|
   D|------------------------|
   A|---2--2--0--0--5-5--0---|
   E|------------------------|

   ORDER:

   INTRO
   VERSE
   CHORUS x2
   VERSE 2
   CHORUS 2 x4
   BRIDGE
   VERSE 3
   CHORUS 3 x4
   OUTRO

4. Dry Ice

|G|-------------------------------------------------|
|D|-------------------------------------------------|
|A|-------------------------------------------------|
|E|-4~------4/16~-----4~---4---4-4-4-4-4-4-4-4-4----|

Verse
|G|---------------------------------------|----------------------------------|
|D|*--------------------------------------|---------------------------------*|
|A|*---------3-3-3-3-4-4-4-4--------------|---------3-3-3-3-4-4-4-4-6-6-6-6-*|
|E|-4-4-4-4-------------------4-4-4-4-----|-4-4-4-4--------------------------|

Chorus
|G|-------------------------------------------------|
|D|*-----------------------------------------------*|
|A|*4-4----------4-4----------4-4----------4-4-6-6-*|
|E|------4-4-4-4------4-4-4-4-----4-4-4-4-----------|

Bridge & Solo
|G|----------------------------------------------------|
|D|----------------------------------------------------|
|A|-----------------4-4-4-4---------------4-4-4-4-6-6--|
|E|-4-4---1-1-1-1------------4-4--1-1-1-1--------------|

-------------------------------------------------------------------------------


5. Going To Pasalacqua


|-----------------------------------------------------------------------------|
|-----------------------------------------------------------------------------|
|---------------------5--5--5--5--5-------------------------------------------|
|---0--0--0--0--0--------------------5--5--5--5--5--5--5--5--5--5-------------|

|---------------------------------------------------------------------------------|
|---------------------------------------------------------------------------------|
|5--5--5--5--5------------------------------------5--5--5--5--5--5--5--5--5--5--5-|
|-----------------5--5--5--5--5--0--0--0--0--0------------------------------------|

|----------------------------------------------------------------------------|
|----------------------------------------------------------------------------|
|----------------------------------------------------------------------------|
|----5--5--5--5--5-----------------------------------------------------------|

|---------------------------------------------------------------------------------|
|---------------------------------------------------------------------------------|
|--------------------5--5--5--5--5--5--5---------------------5--5--5--5--5--5--5--|
|5--5--5--5--5--5--5---------------------5--5--5--5--5--5--5----------------------|

6. Green Day


Just Play The Bass Note Of each Measure

Green Day                Green Day
E||--------------------|-----------0--------|------------------|
B||--------------------|--3--------0--------|------------------|
G||--4-----------------|--2--------4--------|------------------|
D||--4--------2--------|--0--------4--------|------------------|
A||--2--------2--------|-----------2--------|------------------|
E||-----------0--------|--------------------|------------------|

Bass Enters

|-------------------------|----------0------------|------------------------|
|-------------------------|----------0------------|------------------------|
|*------------------------|----------1------------|--4----4----4--4--4--4--|
|*--6----6----6--6--6--2--|----2--2--2----2--2----|--4----4----4--4--4--4--|
|---6----6----6--6--6--2--|----2--2--2----2--2----|--2----2----2--2--2--2--|
|---4----4----4--4--4--0--|----0--0--0----0--0----|------------------------|


                        2x
------------------------||-----------------------|----------------------|
------------------------||-----------------------|----------------------|
----4--4--4----4--4----*||*--9----9----9----9----|--7----7----7----7----|
----4--4--4----4--4----*||*--9----9----9----9----|--7----7----7----7----|
----2--2--2----2--2-----||---7----7----7----7----|--5----5----5----5----|
------------------------||-----------------------|----------------------|

-----------------------|------------------------|-----------------------|
-----------------------|------------------------|-----------------------|
--6----6----6--6----4--|----4--4----4--4--4--4--|--------------------2--|
--6----6----6--6----4--|----4--4----4--4--4--4--|--4----4----4--4----2--|
--4----4----4--4----2--|----2--2----2--2--2--2--|--4----4----4--4----0--|
-----------------------|------------------------|--2----2----2--2-------|

---------------------|---------------------0--|-------------------------|
---------------------|------------------0-----|----0--------------------|
----2--2----2--------|--1----1----1/-2--------|-------2h-1--------------|
----2--2----2--------|--2----2----------------|-------------2-----------|
----0--0----0--------|--2----2----------------|-------------2-----------|
---------------------|--0----0----------------|-------------0--0--0--0--|

----------------------|----------------------|-----------------------|
----------------------|----------------------|-----------------------|
--9----9----9----9----|--7----7----7----7----|--6----6----6--6----4--|
--9----9----9----9----|--7----7----7----7----|--6----6----6--6----4--|
--7----7----7----7----|--5----5----5----5----|--4----4----4--4----2--|
----------------------|----------------------|-----------------------|

------------------------|-----------------------|---------------------|
------------------------|-----------------------|---------------------|
----4--4----4--4--4--4--|--------------------2--|----2--2----2--------|
----4--4----4--4--4--4--|--4----4----4--4----2--|----2--2----2--------|
----2--2----2--2--2--2--|--4----4----4--4----0--|----0--0----0--------|
------------------------|--2----2----2--2-------|---------------------|

---------------------0--|-------------------------|------------------------|
------------------0-----|----0--------------------|------------------------|
--1----1----1/-2--------|-------2h-1--------------|------------------------|
--2----2----------------|-------------2-----------|--6----6----6--6--6--2--|
--2----2----------------|-------------2-----------|--6----6----6--6--6--2--|
--0----0----------------|-------------0--0--0--0--|--4----4----4--4--4--0--|

----------0------------|------------------------|-----------------------|
----------0------------|------------------------|-----------------------|
----------1------------|--4----4----4--4--4--4--|----4--4--4----4--4----|
----2--2--2----2--2----|--4----4----4--4--4--4--|----4--4--4----4--4----|
----2--2--2----2--2----|--2----2----2--2--2--2--|----2--2--2----2--2----|
----0--0--0----0--0----|------------------------|-----------------------|

------------------------|----------0------------|------------------------|
------------------------|----------0------------|------------------------|
------------------------|----------1------------|--4----4----4--4--4--4--|
--6----6----6--6--6--2--|----2--2--2----2--2----|--4----4----4--4--4--4--|
--6----6----6--6--6--2--|----2--2--2----2--2----|--2----2----2--2--2--2--|
--4----4----4--4--4--0--|----0--0--0----0--0----|------------------------|

-----------------------|------------------------|----------0------------|
-----------------------|------------------------|----------0------------|
----4--4--4----4--4----|------------------------|----------1------------|
----4--4--4----4--4----|--6----6----6--6--6--2--|----2--2--2----2--2----|
----2--2--2----2--2----|--6----6----6--6--6--2--|----2--2--2----2--2----|
-----------------------|--4----4----4--4--4--0--|----0--0--0----0--0----|

------------------------|-----------------------|------------------------|
------------------------|-----------------------|------------------------|
--4----4----4--4--4--4--|----4--4--4----4--4----|------------------------|
--4----4----4--4--4--4--|----4--4--4----4--4----|--6----6----6--6--6--2--|
--2----2----2--2--2--2--|----2--2--2----2--2----|--6----6----6--6--6--2--|
------------------------|-----------------------|--4----4----4--4--4--0--|

----------0------------|------------------------|-----------------------|
----------0------------|------------------------|-----------------------|
----------1------------|--4----4----4--4--4--4--|----4--4--4----4--4----|
----2--2--2----2--2----|--4----4----4--4--4--4--|----4--4--4----4--4----|
----2--2--2----2--2----|--2----2----2--2--2--2--|----2--2--2----2--2----|
----0--0--0----0--0----|------------------------|-----------------------|

----------------------|----------------------|-----------------------|
----------------------|----------------------|-----------------------|
--9----9----9----9----|--7----7----7----7----|--6----6----6--6----4--|
--9----9----9----9----|--7----7----7----7----|--6----6----6--6----4--|
--7----7----7----7----|--5----5----5----5----|--4----4----4--4----2--|
----------------------|----------------------|-----------------------|

------------------------|-----------------------|---------------------|
------------------------|-----------------------|---------------------|
----4--4----4--4--4--4--|--------------------2--|----2--2----2--------|
----4--4----4--4--4--4--|--4----4----4--4----2--|----2--2----2--------|
----2--2----2--2--2--2--|--4----4----4--4----0--|----0--0----0--------|
------------------------|--2----2----2--2-------|---------------------|

---------------------0--|--------------------------||----------------------|
------------------0-----|----0---------------------||----------------------|
--1----1----1/-2--------|-------2h-1--------------*||--9----9----9----9----|
--2----2----------------|-------------2-----------*||--9----9----9----9----|
--2----2----------------|-------------2------------||--7----7----7----7----|
--0----0----------------|-------------0--0--0--0---||----------------------|

----------------------|-----------------------|------------------------|
----------------------|-----------------------|------------------------|
--7----7----7----7----|--6----6----6--6----4--|----4--4----4--4--4--4--|
--7----7----7----7----|--6----6----6--6----4--|----4--4----4--4--4--4--|
--5----5----5----5----|--4----4----4--4----2--|----2--2----2--2--2--2--|
----------------------|-----------------------|------------------------|

-----------------------|---------------------|---------------------0--|
-----------------------|---------------------|------------------0-----|
--------------------2--|----2--2----2--------|--1----1----1/-2--------|
--4----4----4--4----2--|----2--2----2--------|--2----2----------------|
--4----4----4--4----0--|----0--0----0--------|--2----2----------------|
--2----2----2--2-------|---------------------|--0----0----------------|

-------------------------||-------------------------------|
----0--------------------||---12----12----12--12--12--14--|
-------2h-1--------------||*--x-----x-----x---x---x---x---|
-------------2-----------||*--9-----9-----9---9---9---11--|
-------------2-----------||-------------------------------|
-------------0--0--0--0--||-------------------------------|

------------------------|------------------------|------------------------|
----12----10----9----9--|--10----9--7----5----4--|--4--4--4----4--4--4----|
----x-----x-----x----x--|--x-----x--x----x----4--|--4--4--4----4--4--4----|
----9-----7-----6----6--|--7-----6--4----2----4--|--4--4--4----4--4--4----|
------------------------|---------------------2--|--2--2--2----2--2--2----|
------------------------|------------------------|------------------------|

------------------------|------------------------|---------------------0--|
------------------------|------------0--0--0--0--|------------------0-----|
---------------------2--|----2--2----2--2--2--2--|--1----1----1/-2--------|
--4----4----4--4--4--2--|----2--2----2--2--2--2--|--2----2----------------|
--4----4----4--4--4--0--|----0--0----0--0--0--0--|--2----2----------------|
--2----2----2--2--2-----|------------------------|--0----0----------------|

--------------------------||-------------------------|----------------------|
----0---------------------||----0--------------------|----------------------|
-------2h-1--------------*||-------2h-1--------------|--9----9----9----9----|
-------------2-----------*||-------------2-----------|--9----9----9----9----|
-------------2------------||-------------2-----------|--7----7----7----7----|
-------------0--0--0--0---||-------------0--0--0--0--|----------------------|

----------------------|-----------------------|------------------------|
----------------------|-----------------------|------------------------|
--7----7----7----7----|--6----6----6--6----4--|----4--4----4--4--4--4--|
--7----7----7----7----|--6----6----6--6----4--|----4--4----4--4--4--4--|
--5----5----5----5----|--4----4----4--4----2--|----2--2----2--2--2--2--|
----------------------|-----------------------|------------------------|

-----------------------|---------------------|---------------------0--|
-----------------------|---------------------|------------------0-----|
--------------------2--|----2--2----2--------|--1----1----1/-2--------|
--4----4----4--4----2--|----2--2----2--------|--2----2----------------|
--4----4----4--4----0--|----0--0----0--------|--2----2----------------|
--2----2----2--2-------|---------------------|--0----0----------------|

-------------------------|----------------------|----------------------|
----0--------------------|----------------------|----------------------|
-------2h-1--------------|--9----9----9----9----|--7----7----7----7----|
-------------2-----------|--9----9----9----9----|--7----7----7----7----|
-------------2-----------|--7----7----7----7----|--5----5----5----5----|
-------------0--0--0--0--|----------------------|----------------------|

-----------------------|------------------------|-----------------------|
-----------------------|------------------------|-----------------------|
--6----6----6--6----4--|----4--4----4--4--4--4--|--------------------2--|
--6----6----6--6----4--|----4--4----4--4--4--4--|--4----4----4--4----2--|
--4----4----4--4----2--|----2--2----2--2--2--2--|--4----4----4--4----0--|
-----------------------|------------------------|--2----2----2--2-------|

---------------------|---------------------0--|-------------------------|
---------------------|------------------0-----|----0--------------------|
----2--2----2--------|--1----1----1/-2--------|-------2h-1--------------|
----2--2----2--------|--2----2----------------|-------------2-----------|
----0--0----0--------|--2----2----------------|-------------2-----------|
---------------------|--0----0----------------|-------------0--0--0--0--|

------------------------|----------0------------|------------------------|
------------------------|----------0------------|------------------------|
------------------------|----------1------------|--4----4----4--4--4--4--|
--6----6----6--6--6--2--|----2--2--2----2--2----|--4----4----4--4--4--4--|
--6----6----6--6--6--2--|----2--2--2----2--2----|--2----2----2--2--2--2--|
--4----4----4--4--4--0--|----0--0--0----0--0----|------------------------|

-----------------------|------------------------|----------0------------|
-----------------------|------------------------|----------0------------|
----4--4--4----4--4----|------------------------|----------1------------|
----4--4--4----4--4----|--6----6----6--6--6--2--|----2--2--2----2--2----|
----2--2--2----2--2----|--6----6----6--6--6--2--|----2--2--2----2--2----|
-----------------------|--4----4----4--4--4--0--|----0--0--0----0--0----|

------------------------|-----------------------|------------------------|
------------------------|-----------------------|------------------------|
--4----4----4--4--4--4--|----4--4--4----4--4----|------------------------|
--4----4----4--4--4--4--|----4--4--4----4--4----|--6----6----6--6--6--2--|
--2----2----2--2--2--2--|----2--2--2----2--2----|--6----6----6--6--6--2--|
------------------------|-----------------------|--4----4----4--4--4--0--|

----------0------------|------------------------|-----------------------|
----------0------------|------------------------|-----------------------|
----------1------------|--4----4----4--4--4--4--|----4--4--4----4--4----|
----2--2--2----2--2----|--4----4----4--4--4--4--|----4--4--4----4--4----|
----2--2--2----2--2----|--2----2----2--2--2--2--|----2--2--2----2--2----|
----0--0--0----0--0----|------------------------|-----------------------|

------------------------|----------0------------|------------------------|
------------------------|----------0------------|------------------------|
------------------------|----------1------------|--4----4----4--4--4--4--|
--6----6----6--6--6--2--|----2--2--2----2--2----|--4----4----4--4--4--4--|
--6----6----6--6--6--2--|----2--2--2----2--2----|--2----2----2--2--2--2--|
--4----4----4--4--4--0--|----0--0--0----0--0----|------------------------|

-----------------------|----------------------|----------------------|
-----------------------|----------------------|----------------------|
----4--4--4----4--4----|--9----9----9----9----|--7----7----7----7----|
----4--4--4----4--4----|--9----9----9----9----|--7----7----7----7----|
----2--2--2----2--2----|--7----7----7----7----|--5----5----5----5----|
-----------------------|----------------------|----------------------|

-----------------------|------------------------|--0-----0-----------0-----|
-----------------------|------------------------|--0--0-----0-----0-----0--|
--6----6----6--6----4--|----4--4----4--4--4--4--|--2-----------2-----------|
--6----6----6--6----4--|----4--4----4--4--4--4--|--2-----------------------|
--4----4----4--4----2--|----2--2----2--2--2--2--|--0-----------------------|
-----------------------|------------------------|--------------------------|

--------0--------------|------------------||
-----0-----0-----------|------------------||
--2-----------2--------|------------------||
-----------------------|------------------||
-----------------------|------------------||
-----------------------|------------------||

7. I wanna Be alone


Intro/Bridge
G-------------|
D-------------|
A--5-3-5-3-5--|
E-------------|

Chorus					  X3
G----------------------------------4-2-0----|---------------------------|
D----------------------------------------2--|---------------------------|
A------------------5-5-5-5-2-2-2-2----------|------------------5-5-5-5--|
E--3-3-3-3-5-5-5-5--------------------------|--3-3-3-3-5-5-5-5----------|

Verse/Outro
G---------------------------|
D---------------------------|
A-5-5-5-5-5-5-5-5--3-5-3-5--|
E---------------------------|

Solo 			    X3
G-----------------------------|-----------------------2-3-4-5--------|
D-----------------------------|-----------------3-4-5---------5-4-3--|
A-5-5-5-5-5-5-5-5--5-3-5-3-5--|-5-5-5-5-5-5-5-5----------------------|
E-----------------------------|--------------------------------------|


Intro X4
Chorus X1
Verse X5
Chorus X1
Verse X2
Solo X1
Verse X1
Bridge X4
Chorus X1
Outro X4

8. I was There

Intro:
G-----------------------------------------|
D--------------------------4-3-1----------|
A-4-4-4-4-4-4-4-4-4-4--2-2-------4-2--2/4-|
E-----------------------------------------|

G----------------------------------|
D----------------------------6-4---|
A-4-4-4-4-4-4-4-4-4-4--4-4/6-----4-|
E----------------------------------|

G-------------------------|
D----------4-3-1----------|
A-4/2--2-2-------4-2--2/4-|
E-------------------------|

Verse:
"Lookin back upon my..."
G-----------------------------------------|
D-----------------------------------------|  repeat
A-4-4-4-4-4-4-4-4-4-4-2-2-2-2-2-2-2-2-2-2-|
E-----------------------------------------|
then

"but each one was a memory..."
G--------------------|
D---------------6-4--|
A-4-4-4-4-4-4/6----4-|
E--------------------|

G-------------------------|
D----------4-3-1----------|
A-4/2--2-2-------4-2--2/4-|
E-------------------------|

Chorus:
"I looked in to the past..."
G--------------------------------|
D--------------------------------|
A--------4-4-4-4---------4-4-4-4-|
E-2-2-2-2--------2-2-2-2---------|

G---------------------------------------------|
D---------------------------------------------|
A-4/2-2-2-2-2-2-2-2-2-2-2-4-4-4-4-4-4-4-4-4-4-|
E---------------------------------------------|
repeat

Then back to intro
then verse
then chorus
then intro again

then....
G--------------------|
D--------------------|  repeat
A-4-4--4-4--2-2--2-2-|
E--------------------|

"lookin back.."
G--------------------|
D--------------------|
A-4-4-4-4--2-2-2-2-2-|
E--------------------|

Then verse
then chorus

Outro:
G---------------------|
D-----------4/6-6-6-6-|
A---------4-----------|
E-2-2-2-2-------------|

G------------------|
D--------4h6-6p4---|
A-------4--------4-|
E2-2-2-2-----------|

G-------------------------|
D----------4-3-1----------|
A-4/2--2-2-------4-2--2/4-|
E-------------------------|

G---------------------|
D-----------4/6-6-6-6-|
A---------4-----------|
E-2-2-2-2-------------|

G------------------|
D--------4h6-6p4---|
A-------4--------4-|
E2-2-2-2-----------|

G--------------------------------------5-5-|
D------------------------------------------|
A-2-2-2-2-2-2-2-2-2-4-4-4-4-4-4-4-4-4-4----|
E------------------------------------------|

G---
D--- hold
A---
E-2-

9. The Judge's Daughter

Verse
G-----------------------------------|
D-----------------------------------|
A------------------3-3-3-3----------|
E--3-3-3-3-1-1-1-1---------3-3-3-3--|

G-------------------------------------------|
D--------------------------2h3h4h5----------|
A------------------3-3-3-3------------------|
E--3-3-3-3-1-1-1-1-----------------3-3-3-3--|

Chorus				  	    X2		       		  X2
G---------------------------------------------|-----------------------------|-------------------|
D---------------------------------------------|-----------------------------|-------------------|
A--3-3-3-3-3-4h5-5-5-5-5h4h3------------------|--3-3-3-3-3-4h5-5-5-5-5h4h3--|-------------------|
E----------------------------3-3-3-3-3-3-1-3--|-----------------------------|--3-3-3-3-3-3-1-3--|

Bridge/Outro
G-------------|
D-------------|
A-------------|
E--3-3-3-1-3--|

Solo (Play this during the guitar solo)
G-------------------------------------------|
D--------------------------2h3h4h5----------|
A------------------3-3-3-3------------------|
E--3-3-3-3-1-1-1-1-----------------3-3-3-3--|

G-------------------------------------------|
D--------------------------5p4p3p2----------|
A------------------3-3-3-3------------------|
E--3-3-3-3-1-1-1-1-----------------3-3-3-3--|

Verse X2
Chorus X1
Verse X4