Bass Tabs Desensitized (Bass Tabs) Green Day  

138
[0]
   1

Green Day
"""Desensitized"""

Esto se toca en este orden.... cualquier duda oarreglo de este tab porfavor
escribanme
______________________________________________________________________
(Inicio)
|-------------| (x8)
|-------------|
|-----33-3----|
|--333----3---|
______________________________________________________________________
(Coro)
|---------------------| (x2)
|---------------------|
|---------------------|
|--000000000--3333333-|

|-------------| (x2)
|-------------|
|-00000-------|
|------11111--|

|---------------------------| 
|---------------------------|
|-333333--------------------|
|-------333333-11111111-----|
______________________________________________________________________
(verso 2)
|-------------| (x10)
|-------------|
|-----33-3----|
|--333----3---|
______________________________________________________________________
(coro2 = coro)
______________________________________________________________________
(Puente)
|-------------------| (x6)
|-------------------|
|-----33------------|
|--333---3333333----|
______________________________________________________________________
(Coro3 = coro)
______________________________________________________________________
(Outro)
|-------------| (x4)
|-------------|
|-----33-3----|
|--333----3---|
_______________________________________________________________________
__________________________CAVDRAGON

Fuente: http://www.azchords.com/g/greenday-tabs-1705/desensitizedbass-tabs-469058.html