Bass Tabs Attitude (Bass Tabs) Guns N' Roses  

12
[0]
   0

Attitude by Guns N Roses

standard tuning


G|----------------------------------------------------------------------|
D|----------------------------------------------------------------------|
A|-4-44-444---------4-44-444---------4-44-444---------4-44-444----------|
E|----------2-22-222---------2-22-222--------2-22-222----------2-22-222-|

G|---------------------------------------------------------------|
D|---------------------------------------------------------------|
A|---------------------------------------------------------------|
E|-1111111111111111222222222223211111111111111112222222244444444-|

G|----------------------------------------------------------------------|
D|----------------------------------------------------------------------|
A|-4-44-444---------4-44-444---------4-44-444---------4-44-444----------|
E|----------2-22-222---------2-22-222--------2-22-222----------2-22-222-|

G|---------------------------------------------------------------|
D|---------------------------------------------------------------|
A|---------------------------------------------------------------|
E|-1111111111111111222222222223211111111111111112222222244444444-|

Solo
G|----------------------------------------------------------------------|
D|----------------------------------------------------------------------|
A|-4-44-444---------4-44-444---------4-44-444---------4-44-444----------|
E|----------2-22-222---------2-22-222--------2-22-222----------2-22-222-|

and just repeat through the rest of the song