Bass Tabs Patience (Bass Tabs) Guns N' Roses  

97
[1]
   1

Guns N' Roses 
Patience 
Key: G   

      
INTRO AND VERSES TOO: 
|-----|--------------|-------2-2-4-2-------| 
|-----|--------------|-0-2/4---------4-0---| 
|-0-2-|3--2--------5-|-------------------3-| 
|-----|------3-4-5---|---------------------| 
 
RIFF 1 
|-------------------------------------------| 
|-------------------------------------------| 
|--3-3-3-------3-3-----------3-3-3-------5~-| 
|--------3-3-3-----3-2-0-0-0-------3-3-3----| 
 
RIFF 2: 
|--9-10-117-|-------------------| 
|------------|-------------------| 
|------------|--------------5-5--| 
|------------|-2-2-3--0-3-3------| 
 
END: 
|-----------------------------| 
|-----------------------------| 
|------------3-3--3--------5~~| 
|--2-2-3-3h5--------3-3--3----| 
 
Good luck!!!! 
It's like the acoustic guitar(I think).


 

 

Fuente: http://www.azchords.com/g/gunsnroses-tabs-1732/patiencebass-tabs-469484.html