Bass Tabs Adonai (Bass Tabs) Hillsong United  

161
[1]
   2

Adonai by United live


intro:
G|------------------------------------------------------------------|
D|------------------------------------------------------------------|
A|-------66666611-11-11-11-14-141414141414-141414141414/444479---|
E|--4444------------------------------------------------------------|


verse

G|-----------------------------------------|
D|-----------------------------------------|
A|---------2-----------2-------------------|
E|--4------------0-----------0-----2-------|


pre-chorus:

G|-------------------------------------------------|
D|-------------------------------------------------|
A|---------2-----------------2---------------------|
E|--4------------0----2---4-----0----2222222-------|


chorus:

G|----------------------------------------------------|
D|----------------------------------------------------|2x
A|---2222222222s--4444444444s--7777777s--99999999-----|
E|----------------------------------------------------|

G|-----------------------------------------|
D|-----------------------------------------|2x
A|-----------------2222--------------------|
E|--444444---2222--------0000---2222222----|

instrumental:

G|-------------------------------------------------|
D|-------------------------------------------------|
A|----222222----------444444s777777s999999---------|
E|------------000000-------------------------------|

verse:

G|------------------------------------------------|
D|------------------------------------------------|
A|---------2222-----------22222-------------------|
E|--4444---------00000-----------00000-----22222--|

pre-chorus:

G|-----------------------------------|
D|-----------------------------------|2x
A|---------22222---------------------|
E|--44444---------00000---2222222----|

instrumental:

G|-----------------------------------------------------------------|
D|-----------------------------------------------------------------|
A|-----------777777-----------------777777------------77777--7--9--|
E|---777777----------999999-777777------------999999---------------|

bridge:

G|---------------------------------|
D|---------------------------------|4x
A|---------2-----------2-----------|
E|--4------------0-----------------|


lets glorify Jesus!!! 

Fuente: http://www.azchords.com/u/unitedlive-tabs-16410/adonai-tabs-263369.html