Bass Tabs  (Bass Tabs) Hillsong United  

97
[0]
   0


G|-----5-3-5-----3h5-|
D|-----------3h5-----| 
A|-3-3---------------|  |
E|-------------------|  |
                        | Alternate between these riffs
G|-----5-3-5---------|  |
D|-----------3h5-----|  |
A|-3-3---------------| /
E|-------------------|/

All the notes are popped!

These are the only 2 riffs you need!