Bass Tabs Lucky (Bass Tabs) Jason Mraz  

282
[0]
   0

Lucky
Jason Mraz Feat. Colbie Caillat

Intro(I personally don't play it)
G--------------------------------|
D--------------------------------|
A--3--3--3--3--3--3--3-----------|
E--------------------------------|

Verse 1
G------2222----------------2222---------------|
D--------------5555---2222----------5555------|
A--3333----5555-----------------5555----------|
E---------------------------------------------|

Verse 2
G------2222-------------------2222---------------|
D----------------5555----2222------------5-------|
A--3333-----5555---------------------5-----------|
E------------------------------------------------|

Chorus

G---22------------5--4---22---------------------|
D----------55------------------55----5---5------|
A------55-------------------55------------------|
E-----------------------------------------------|

G-------2~---------------|
D-----------2~----5~-----|
A---3~-------------------|
E------------------------|

Bridge

G------22-------------22-----------------22-----------|
D-----------55---------------55-----------------55----|
A--55-------------55----------------55----------------|
E-----------------------------------------------------|

Chorus

G---22------------5--4---22---------------------|
D----------55------------------55----5---5------|
A------55-------------------55------------------|
E-----------------------------------------------|

G---22------------5--4---22---------------------|
D----------55------------------55----5---5------|
A------55-------------------55------------------|
E-----------------------------------------------|

Verse 3
G------2222----------------2222---------------|
D--------------5555---2222----------5555------|
A--3333----5555-----------------5555----------|
E---------------------------------------------|

Verse 4
G------2222----------------2222---------------|
D--------------5555---2222----------5555------|
A--3333----5555-----------------5555----------|
E---------------------------------------------|



Chorus

G---22------------5--4---22---------------------|
D----------55------------------55----5---5------|
A------55-------------------55------------------|
E-----------------------------------------------|

G---22------------5--4---22---------------------|
D----------55------------------55----5---5------|
A------55-------------------55------------------|
E-----------------------------------------------|

G-------2~---------------|
D-----------2~----5~-----|
A---3~-------------------|
E------------------------|

Fuente: http://www.azchords.com/j/jasonmraz-tabs-1983/luckybass-tabs-475142.html