Bass Tabs The Remedy (I Won't Worry) (Bass Tabs) Jason Mraz  

219
[0]
   0



Intro/Chorus:            ~~End On~~
G|------------------||----------------||
D|------------------||----------------||
A|3h55-6666-6--8888-||3h55-6666-6--8--||
E|-----------66-----||-----------66---||


Verse:                 ~~End On~~
G|------------------||-------------||
D|------------------||-------------||
A|----3333-3--11-0--||-----3333-3--||
E|1h33------11------||1h33-----1---||


Pre-Breakdown:
G|------------------------------------||
D|------------------------------------||
A|3/5555555566666666--------888888888-||
E|------------------66666666----------||


Breakdown:
G|--------------||----------------||
D|6h8888888888--||6h8888888888----||
A|--------------||----------------||
E|------------6-||------------6-4-||

THATS IT....ENJOY.
MAIL ME AT  ------ AUDIOSLOVE_19