Bass Tabs A Boy Named Sue (Bass Tabs) Johnny Cash  

84
[0]
   1

G---------------------|---------------------|----------------------------|
D----3---3---3---3----|---8---8---8---8-----|----10---10----10---10------|
A--1-------1----------|-6-------6-----------|-8-----------8--------------|
E------1-------1------|-----6-------6-------|-------8------------8-------|

G--------------------|Repeat for the whole song
D----3---3---3---3--|
A--1-------1--------|
E------1-------1----|