Bass Tabs After The Gold Rush (Bass Tabs) Neil Young  

109
[0]
   0

So Yea this whole song is piano and horn, but I can only assume bassist enjoy this song. 
any group of musicians wanting to play this will no longer have to leave the bassist out.

Every note during the verse and intro is held out one measure, as outlined in my tab by 
up the notes

Intro (0:00)
G]-----|0~---|-----|0~---|
D]0~---|-----|0~---|-----|
A]-----|-----|-----|-----|
E]-----|-----|-----|-----|


Verse 1(0:10), 2(1:05) and 3(2:50) (PArt I)
G]-----|0~---|-----|0~---|-----|2~---|0~---|2~---|
D]0~---|-----|0~---|-----|0~---|-----|-----|-----|
A]-----|-----|-----|-----|-----|-----|-----|-----|
E]-----|-----|-----|-----|-----|-----|-----|-----|


Verses 1(0:31), 2(1:25) and 3(3:09) (PArt II)
G]4~---|5~---|0~---|5~---|-----|2~---|5~---|0~---|-----|2~---|5~---|0~---|
D]-----|-----|-----|-----|0~---|-----|-----|-----|0~---|-----|-----|-----|
A]-----|-----|-----|-----|-----|-----|-----|-----|-----|-----|-----|-----|
E]-----|-----|-----|-----|-----|-----|-----|-----|-----|-----|-----|-----|

This is no timing with this next part. Sorry guys. Also i add the open D as part of a 
octave. Its not necessary but i do think it sounds cool
Horn Solo Tabbed out on bass, Just to show off really (1:57)

G]7-9-11-11-11-11-11/9-7-7-|
D]0~-------------------0-0-|
A]-------------------------|
E]-------------------------|

G]7-9-11-11-11-11-11-9-7-|
D]0~-------------------0-|
A]-----------------------|
E]-----------------------|

G]7-9-11-11-11-11-11-12-11-9-9-9-9-9-11-7-7-11-9-|
D]0~------------------------------------0-0------|
A]-----------------------------------------------|
E]-----------------------------------------------|

G]15-17-15-11-11-11-9-7-9--7-9-11-7-7-7-9-|
D]--------------------0~---0~-----0-0-0---|
A]----------------------------------------|
E]----------------------------------------|

G]7-9-11-11-11-11-11-12-11-9-9--9-9-11-7-7-9-7-|
D]0~-----------------------------------0-0---0-|
A]---------------------------------------------|
E]---------------------------------------------|

G]7-9-11-11-11-11-11-12-11-9-9--9-9-11-7-7-9-7-|
D]0~-----------------------------------0-0---0-|
A]---------------------------------------------|
E]---------------------------------------------|


That's it guys.

Bassman0719