Bass Tabs Alive (Bass Tabs) Oasis  

103
[1]
   1

Oasis Bass Tab - Alive
INTRO
G---------------------------------------------------------------------------
D---------------------------------------------------------------------------
A--------------------------------------------------------------------------- (X6)
E-12-12-12-12-12-12-12-12-12-12-12-12--8--8--8--8--8--8--8--8--8--8--8--8---
 
VERSE 1
G---------------------------------------------------------------------------- 
D----------------------------------------------------------------------------
A---------------------------------------------------------------------------- (X4)
E-12-12-12-12-12-12-12-12-12-12-12-12--8--8--8--8--8--8--8--8--8--8--8--8----
 
CHORUS 1
G-----------------------------------------------------------------------------------
D-----------------------------------------------------------------------------------
A-----------------------------------------------------------------2--2--2--2--2--2--  (X3)  
E--2--2--2--2--2--5--5--5--5--5--5--0--0--0--0--0--0--------------------------------
 
G------------------------------------------------------------------------------
D------------------------------------------------------------------------------
A------------------------------------------------------------------------------
E--2-2-2-2-2-2-2-2-2-2-2--5-5-5-5-5-5-5-5-5-5-5--0-0-5-5-0--0-0-0--0-0-5-5-0---
 
VERSE 2
same as verse 1
 
CHORUS 2
G-----------------------------------------------------------------------------------
D-----------------------------------------------------------------------------------
A-----------------------------------------------------------------2--2--2--2--2--2--  (X3)  
E--2--2--2--2--2--5--5--5--5--5--5--0--0--0--0--0--0--------------------------------
 
G------------------------------------------------------------------
D------------------------------------------------------------------
A------------------------------------------------------------------  
E--2-2-2-2-2-2-2-2-2-2-2--5-5-5-5-5-5-5-5-5-5-5---- 
 
G--------------------------------------------------------------------
D--------------------------------------------------------------------
A--------------------------------------------------------------------
E--0-0-5-5-0--0-0-0--0-0-5-5-0--0-0-0--0-0-5-5-0--0-0-0--0-0-5-5-0---
 
 
BRIDGE
G-----------------------------------------------
D-------------0---------------------------------
A-----0--2------2--0--2----------------------  
E-----------------------------0----0-0-0-0---
 
G---------------------
D-----------0--2-----
A---0--2-------------  
E---------------------
 
OUTRO
same as chorus 2