Bass Tabs Little By Little (Bass Tabs) Oasis  

221
[0]
   0

OASIS

LITTLE BY LITTLE (WRITTEN: Noel Gallagher)


Normal Tune -eadg-

Symbols:
 = slide down
/ = slide up

Intro
|-----------------------------------------------------------------|
|--------------5--5--5--------------------------------------------|
|--3--3--3--2-----------------------------------------------------|
|-----------------------3--0--------5--------0---------5--------|

Verse
|---------------------|
|---------------------|
|---------------------|
|--0--------5--------| x4

You know I didn't mean...
|-----------------------------------------------------------------------|
|-----------------------------------------------------------------------|
|--5------------------------------10/12-12-12--12-12-12---10----10----|
|-------2--3----3--2--0------5------------------------------------------|

 Cause little by little...
|------------------------------------------------|
|------------------------------------------------|
|--5-5---5--------------7----/9----/10----10----|
|-------------5----5-----------------------------| x3

  Why you're really here...
|---------------------------------------------------------------|
|-------------10----10------------------------------------------|
|-5-5---5---/-----------------------11/12----12----12----12----|
|-------------------------3----3--------------------------------|

Verse
 True perfection has to...
-------------------------------------------------
----------------------------11-----12-----14----
--7----7----7----7---10-12------12-----12--------
-------------------------------------------------

 I know that sounds foolish...
----------------------------------------------------------
--------------------------12-11-r-------------------------
--7----7----7----7----12----------14-12-r-10--12-r-12----
----------------------------------------------------------
 the day has come...
-------------------------------------------------
--------------------------11-----12-----14--14--
--7----7----7----7----12------12-----12----------
-------------------------------------------------
 the life inside...
-------------------------------------------------------
-------------------------------------------------------
--7----7----7----7----/12----12----11/12-12--11/12-12--
-------------------------------------------------------

 Cause little by little...
|------------------------------------------------|
|------------------------------------------------|
|--5-5---5--------------7----/9----/10----10----|
|-------------5----5-----------------------------| x3

 Why you're really here...
|-------------------------------------------------------
|--------------10----10---------------------------------
|--5-5---5---/-----------------------11/12-12-12--12----
|--------------------------3----3-----------------------

-----------------------------------------------------
-----------------------------------------------------
--11/12-12-12--12----11/12-12-12--12--r--10--r--9----
-----------------------------------------------------

-----------------------------------------------------------
-----------------------------------------------------------
--11/12-12-12--12----11/12-12-12--12----11/12-12-12--12--r-
-----------------------------------------------------------

------------------------------------------------------------------
------------------------------------------------------------------
--10--r--9----4/5-5-5--5----4/5-5-5--5----4/5-5-5--5--r--3--r--2--
------------------------------------------------------------------

-----------------------------------------------------------------|
-----------------------------------------------------------------|
--4/5-5-5--5----4/5-5-5--5--------------------------10----10----|
------------------------------5--5--5--5--5--5--5---------------|

 Cause little by little...
|------------------------------------------------|
|------------------------------------------------|
|--5-5---5--------------7----/9----/10----10----|
|-------------5----5-----------------------------| x3

NOTE: Starting now all the r's (r = rest) depends how you wanna play
meaning that you don't have to put the rest's there

 I just ask myself why you're really here
|---------------------------------------------------------------------
|----------------------------------------9-10-14-12--12--12-12-14-----
|--5-5---5-------------------------10-12--------------------------12--
|-------------5----5----0--2--3---------------------------------------

------------------------------------------------------------------
-------------------------------9-10-14-12--12--12-12-14-----------
--12--r--------9--r--10--10-12--------------------------12----12--
--------12--r-----------------------------------------------------

---------------------------------------------------------------
----------------------------9-10-14-12--12--12-12-14-----------
------------9--r--10--10-12--------------------------12----12--
--r--12--r-----------------------------------------------------

--------------------------------------------------------------------
----------------------------9-10-14-12--12--12-12--10--10-----------
------------9--r--10--10-12--------------------------------10--10--
--r--12--r----------------------------------------------------------

-----------------------------------------------------------------
-----------------------------------------------------------------
--5--------5-/-17--------17--5--------5-/-17------17-17-15------
------------------------------------------------------------17--

-----------------------------------------------------------------
-----------------------------------------------------------------
--5--------5-/-17--------17--5--------5-/-17------17-17-15------
------------------------------------------------------------17--

-----------------------------------------------------------------
-----------------------------------------------------------------
--5--------5-/-17--------17--5--------5-/-17------17-17-15------
------------------------------------------------------------17--

-----------------------------------------------------------------
-----------------------------------------------------------------
--5--------5-/-17--------17--5--------5-/-17------17-17-15------
------------------------------------------------------------17--

fade out