Bass Tabs Lyla (Bass Tabs) Oasis  

178
[0]
   1

This 100% right....enjoy

Verse
G|------------------------------------|
D|--9---9---9---9---9---9---9---9-----|
A|------------------------------------|
E|------------------------------------| X5

Pre-Chorus
G|------------------------------------|
D|------------------------------------|
A|--------------7---------------------|
E|--7---7---7-------7---7---7---7-----| X2

Chorus
G|--------------------------------------------------------------------|
D|----------------------------------7---7---7---7---------------------|
A|------------------7-------------------------------7---7---7---7-----|
E|--7---7---7---7-------7---7---7-------------------------------------|

G|--------------------------------------------------------------------|
D|--------------------------------------------------------------------|
A|------------------7-------------------------------7---7---7---7-----|
E|--7---7---7---7-------7---7---7---5---5---5---5---------------------|

G|--------------------------------------------------------------------|
D|----------------------------------7---7---7---7---------------------|
A|------------------7-------------------------------7---7---7---7-----|
E|--7---7---7---7-------7---7---7-------------------------------------|

G|--------------------------------------------------------------------|
D|--------------------------------------------------------------------|
A|------------------7-------------------------------7---7---7---7-----|
E|--7---7---7---7-------7---7---7---5---5---5---5---------------------|

Chorus-Out
G|------------------------------------|
D|------------------------------------|
A|--9---9---9---9---9---9---9---9-----|
E|------------------------------------|

Interlude
G|------------------------------------|
D|------------------------------------|
A|------------------------------------|
E|--7---7---7---7---7---7---7---7-----| X2

Verse

Pre-Chorus

Chorus

Bridge
G|------------------------------------|
D|------------------7---7---7---7-----|
A|--9---9---9---9---------------------|
E|------------------------------------| X3

G|------------------------------------|
D|------------------------------------|
A|--9---9---9---9---9---9---9---9-----|
E|------------------------------------|