Bass Tabs Have you ever seen the rain? (Bass Tabs) Smokie  

31
[0]
   0

!!No solo part!!

-|-2-----------|-----5-4-2-------|
-|---5-2-2-----|-----------5-5---|
-|-----------3-|-3-------------3-|
-|---------3---|---3-------------|

-||---------------|-----------------|
-||-----------5-5-|-------------5-5-|
-||-3-----3-3-----|-3-3-----3-3-----|
-||---3-3---------|-----3-3---------|

-|-----------------|-------------------|
-|-----------------|-------------------|
-|-----5-5-----5-5-|-3-3-----3-3-----3-|
-|-3-3-----3-3-----|-----3-3-----3-3---|

-|---------------|-----------------|
-|-----------5-5-|-------------5-5-|
-|-3-----3-3-----|-3-3-----3-3-----|
-|---3-3---------|-----3-3---------|

-|-----------------|---------|
-|-----------------|---------|
-|-----5-5-----5-5-|-3-3-----|
-|-3-3-----3-3-----|-----3-3-|

-|---------------------|-----------------------------|
-|-------2-3-3---------|-----------------------------|
-|-3-3-5---------------|-3-3-2-----------------------|
-|-------------1-3-3-3-|-------5-5-3-5-3-1-1-1-3-3-3-|

-|-----------------------------|-------|-2-----------||
-|-----------------------------|-------|---5-2-2-----||
-|-3-3-2-----------------------|-3-3---|-----------3-||
-|-------5-5-3-5-3-1-1-1-3-3-3-|-----3-|---------3---||

Tabled by - Alexander Vilemson
This is my first tab and I hope someone will fix it soon...