Bass Tabs I'll Meet You At Midnight (Bass Tabs) Smokie  

27
[0]
   1

Song: I'll Meet You At Midnight
Artist: Smokie

The contains of three parts:

Intro
|--------------|
|--------------|
|----------2---|
|--0--2--------|
Listen to the song and just match the notes

Verse
|---------------------------------|
|---------------------0-4-----0-4-|
|-----0-4----0-4---2-------2------|
|--2------2-----------------------|
Same thing here listen and you'll get it

Chorus
|---------------------|
|---------------------|
|-------2-------0-4-0-|
|--0--4----4--2-------|

Just keep playing the verse and chorus throughout the song