Bass Tabs Handbags & Gladrags (Bass Tabs) Stereophonics  

67
[0]
   0

This is the bass tab by El Leggio and its bassically quite easy. Sustain all notes
CAPO 2 for xplaination
Verse come in when drums come in.
G-----------------------------------------------------------
D-----------------------------------------------------------
A--0--------------------------------------------------------
E--------3----2----0----------------------------------------

Repeat until chorus
-----------------4------------------------------------------
-----------------------0------------------------------------
-2----------------------------------------------------------
------0-----5---------------0-------------------------------

Thats Bassically all you need but its very baSSic.
Another superb tab by the man who will never reveal his true identity but goes by 
the name of ......

El Leggio

Fuente: http://www.azchords.com/s/stereophonics-tabs-3802/handbagsandgladragsbass-tabs-519438.html