Bass Tabs Have A Nice Day (Bass Tabs) Stereophonics  

65
[0]
   1

This is only my 2nd tab please comment if things are wrong



G|-------------------------------------------------|
D|-------------------------------------------------|
A|-2--2-2--2-2--2-2-4-2-4----------------------4---|  x4
E|-------------------------4-0--0-0--0-0--0-0-4----|

0:32
G|------------------------------------------|
D|------------------2--2-2--2--2--2-2-------|
A|-0--0-0--0-0--0-0-------------------------| x1
E|------------------------------------------|


0:40
G|-------------------------------------------------|
D|-------------------------------------------------|
A|-2--2-2--2-2--2-2-4-2-4----------------------4---|  x2
E|-------------------------4-0--0-0--0-0--0-0-4----|

0:55
G|------------------------------------------|
D|------------------2--2-2--2--2--2-2-------|
A|-0--0-0--0-0--0-0-------------------------| x1
E|------------------------------------------|

1:02
G|-------------------------------------------------|
D|-------------------------------------------------|
A|-2--2-2--2-2--2-2-4-2-4----------------------4---|  x4
E|-------------------------4-0--0-0--0-0--0-0-4----|

1:35
G|------------------------------------------|
D|------------------2--2-2--2--2--2-2-------|
A|-0--0-0--0-0--0-0-------------------------| x1
E|------------------------------------------|

1:45
G|-------------------------------------------------|
D|-------------------------------------------------|
A|-2--2-2--2-2--2-2-4-2-4----------------------4---|  x2
E|-------------------------4-0--0-0--0-0--0-0-4----|


1:59
G|-------------------------------------------------|
D|-------------------------------------------------|
A|-----------------------2--2-2--2-2 hold----------|  x2
E|--2--2-2--2-2--2-2--2----------------------------|

2:15
G|-------------------------------------------------|
D|-------------------------------------------------|
A|-2--2-2--2-2--2-2-4-2-4----------------------4---|  x3
E|-------------------------4-0--0-0--0-0--0-0-4----|

2:39
G|------------------------------------------|
D|------------------2--2-2--2--2--2-2-------|
A|-0--0-0--0-0--0-0-------------------------| x1
E|------------------------------------------|

2:47
G|-----------------------------------------------|
D|-----------------------------------------------|
A|-2--2-2--2-2--2-2-4-2-4----------------------4-|  x4 then fades away
E|-------------------------4-0--0-0--0-0--0-0-4--|

Fuente: http://www.azchords.com/s/stereophonics-tabs-3802/haveanicedaybass-tabs-519441.html