Bass Tabs Peaceful Easy Feeling (Bass Tabs) The Eagles  

62
[0]
   0

Intro:

G|----------------------------------------------------------------|
D|2-------2-------2-------2-------2-------2-------2-------2-------|
A|----2-------2-------2-------2-------2-------2-------2-------2---|
E|----------------------------------------------------------------|

Verses & Solo Pt. 1:

G|----------------------------------------------------------------|
D|2---------------2---------------2-------------------------------|
A|----2---0-----------2---0-----------2---0-------2-------2-------|
E|------------0---------------0---------------0-------2-------2---|

G|----------------------------------------------------------------|
D|2---------------2---------------2-------------------------------|
A|----2---0-----------2---0-----------2---0-------2-------2---2-1-|
E|------------0---------------0---------------0-------2-----------|

Chorus and Solo Pt. 2:

G|----------------------------------------------------------------|
D|----------------2-------2---------------------------------------|
A|0-------0-----------2-------2---0-------0-------2-------2---20--|
E|----0-------0-----------------------0-------0-------2---------32|

G|----------------------------------------------------------------|
D|--------------------------------2-------2-------2-------2-------|
A|----2-------4---0---0---2---2-------2-------2-------2-------2---|
E|0-------2-------------------------------------------------------|