Bass Tabs I'll Be There For You (Bass Tabs) The Moffatts  

28
[0]
   0

Verses/Reff:
G-------------------------------------------------------------------------------
D-------------------------------------------------------------------------------
A------------33-----44----------------------------------------------------------
E----33--55---------------------------------------------------------------------

Pre Chorus:
G-------------------------------------------------------------------------------
D-------------------------------------------------------------------------------
A--------2-----3---------2------------------------------------------------------
E----3--------------------------------------------------------------------------