Bass Tabs Just Another Phase (Bass Tabs) The Moffatts  

17
[0]
   0


Tuning:standard

Here's how Clint Played this

Intro:

G|--------------------------------------------------------|
D|--------------------------------------------------------|
A|-----------3------------------3-------------------------|
E|--0--h2/3-----------0--h2/3-----------------------------|

Pre Verses:

G|--------------------------------------------------------|
D|--------------------------------------------------------|
A|--------------------------333333------------------------|
E|--000000------333333------------------------------------|

Verses: Same as pre verses

Pre Chorus (I can't It's not fair think about it)

G|--------------------------------------------------------|
D|--------------------------------------------------------|
A|---5--3--2--0--5--3--2--0--5--3--2--0-------------------|
E|--------------------------------------------------------|

(We'll getting gray hair)

G|--------------------------------------------------------|
D|--------------------------------------------------------|
A|--------------------------------------------------------|
E|----5---------------------------------------------------|

Chorus(It's just another phase...)

G|--------------------------------------------------------|
D|--------------------------------------------------------|
A|---------333333---------333333--------------------------|
E|--333333---------555555---------------------------------|

(I'm Blind)

G|--------------------------------------------------------|
D|--------------------------------------------------------|
A|---5--2--3--0--5--2--3--0--5--2--3--0--5--2--3--0-------|
E|--------------------------------------------------------|