Bass Tabs Miss You Like Crazy (Bass Tabs) The Moffatts  

8
[0]
   0

Miss You like Crazy Bass Tab by The Moffats 


Verse 1
G|-------------|---------------|---------------|-------------| 
D|-------------|---------------|---------------|-------------| 
A|-------------|---------------|-------3-------|------5------| 
E|--3----------|------0--------|---------------|-------------| X 2

G|-------------|---------------|---------------|-------------| 
D|-------------|---------------|---------------|-------------| 
A|--3------5---|---------------|--------3------|------5------| 
E|-------------|--3--2----0----|---------------|-------------|  
Chorus 1
G|-------------|---------------|---------------|-------------| 
D|-------------|---------------|---------------|-------------| 
A|-------------|----5----------|------3--------|----5--------| 
E|--3----------|---------------|---------------|-------------| X 2

G|-------------|---------------|---------------|-------------| 
D|-------------|---------------|---------------|-------------| 
A|--3----------|---------------|---3-----------|--5----------| 
E|-------------|-----5---------|---------------|-------------| 


G|-------------|---------------|---------------|-------------| 
D|-------------|---------------|---------------|-------------| 
A|-------------|----5----------|------3--------|----5--------| 
E|--3----------|---------------|---------------|-------------|

Verse 2
G|-------------|---------------|---------------|-------------| 
D|-------------|---------------|---------------|-------------| 
A|-------------|---------------|-------3-------|------5------| 
E|--3----------|------0--------|---------------|-------------| X 2

G|-------------|---------------|---------------|-------------| 
D|-------------|---------------|---------------|-------------| 
A|--3------5---|---------------|--------3------|------5------| 
E|-------------|--3--2----0----|---------------|-------------|  
Chorus 2
G|-------------|---------------|---------------|-------------| 
D|-------------|---------------|---------------|-------------| 
A|-------------|----5----------|------3--------|----5--------| 
E|--3----------|---------------|---------------|-------------| X 2

G|-------------|---------------|---------------|-------------| 
D|-------------|---------------|---------------|-------------| 
A|--3----------|---------------|---3-----------|--5----------| 
E|-------------|-----5---------|---------------|-------------| 


G|-------------|---------------|---------------|-------------| 
D|-------------|---------------|---------------|-------------| 
A|-------------|----5----------|------3--------|----5--------| 
E|--3----------|---------------|---------------|-------------|

G|-------------|
D|-------------|
A|--3----------|
E|-------------|

Chorus 3
G|-------------|---------------|---------------|-------------| 
D|-------------|---------------|---------------|-------------| 
A|-------------|----7----------|------5--------|----7--------| 
E|--5----------|---------------|---------------|-------------| X 2


G|-------------|---------------|---------------|-------------| 
D|-------------|---------------|---------------|-------------| 
A|--5----------|---------------|------5--------|----7--------| 
E|-------------|------7--------|---------------|-------------|


G|-------------|---------------|---------------|-------------| 
D|-------------|---------------|---------------|-------------| 
A|-------------|---------------|------5--------|----7--------| 
E|---5---------|------7--------|---------------|-------------| X 4


End
G|-------------|
D|-------------|
A|-------------|
E|--5----------|