Bass Tabs I'm a believer (Bass Tabs) The Monkees  

84
[0]
   1

Verse:
G|------------------------------------------------------------|
D|---------------5-5---------------------------5-5------------|
A|-------3-5-5578---3--------3---------3-5-5578---3--------3--|
E|3-3-333------------5-3-3-35---3-3-333------------5-3-3-35---|

G|--------------------------------------------------------7-7--|
D|-----------------------------53---------------53-------------|
A|3-3-333----------3-3-333-------53--3-3-333------53-5-5-5-5---|
E|--------3-3-333----------3-3---------------3-3---------------|

Chorus:
G|--------------------|   ---------------|
D|-------------5-555--|   ---------------|
A|-----3-3------------|x3 3--3~----------|
E|x3-3-----3-3--------|   -------3~--1~--|

Verse:
G|------------------------------------------------------------|
D|---------------5-5----5-5--------------------5-5------------|
A|-------3-5-5578---53-----53----------3-5-5578---3--------3--|
E|3-3-333-------------5------5--3-3-333------------5-3-3-35---|

G|--------------------------------------------------------7-7--|
D|-----------------------------53---------------53-------------|
A|3-3-333----------3-3-333-------53--3-3-333------53-5-5-5-5---|
E|--------3-3-333----------3-3---------------3-3---------------|

Chorus:
G|--------------------|   ---------------|
D|-------------5-555--|   ---------------|
A|-----3-3------------|x3 3--3~----------|
E|x3-3-----3-3--------|   -------3~--1~--|

Solo:
G|--------------------------------------------------------------------------|
D|5-5--532-------23-5-32--235-32---23-5-5--532-------23-5-32--235-32---5-5--|
A|--------5-5-5-5-------55------55------------5-5-5-5-------55------55------|
E|--------------------------------------------------------------------------|

Verse:
G|--------------------------------------------------------7-7--|
D|-----------------------------53---------------53-------------|
A|3-3-333----------3-3-333-------53--3-3-333------53-5-5-5-5---|
E|--------3-3-333----------3-3---------------3-3---------------|

Chorus:
G|--------------------|   ---------------|
D|-------------5-555--|   ---------------|
A|-----3-3------------|x3 3--3~----------|
E|x3-3-----3-3--------|   -------3~--1~--|

Outro:
G|-------------------|
D|----53-------------|
A|------53-----53----|
E|3-33-----3-33--5--|

Repeat untill end