Bass Tabs (I'm Not Your) Steppin' Stone (Bass Tabs) The Monkees  

66
[1]
   1

-------------------------------------------------------------------------------
			     (I'm Not Your) Steppin' Stone - Monkees
-------------------------------------------------------------------------------


Tuning: Standard

intro/Chorus

G|-------------------------------|
D|--------------7-7--------------|
A|----7-7-10-10------------------|
E|------------------8-7-8--------|

Verse

G|-------------------------------|
D|----------------7--7-----------|
A|----7--7-10--10----------------|
E|---------------------8-7-8-----|

Chorus pt2

G|------------------------------------------------------------------|
D|---------------7----------------7-------------7-------------------|
A|----7--7-7--10---10--7--7-7--10---10---7~--10---10--7~-etc--7~~~--|
E|------------------------------------------------------------------|


| /  slide up
|   slide down
| h  hammer-on
| p  pull-off
| ~  vibrato
| +  harmonic
| x  Mute note
===============================================================================

Fuente: http://www.azchords.com/m/monkees-tabs-2614/imnotyoursteppinstone-tabs-411681.html