Bass Tabs Last Train To Clarksville (Bass Tabs) The Monkees  

50
[0]
   1

This is The Monkees Last Train To Clarksvile!


Opening
G|-0|-0|-0|-0|
D|--|--|--|--|
A|--|--|--|--|
E|--|--|--|--|


Verse 4X
G---0------|
D-----3-2-0|
A----------|
E-3--------|


Oh No no no...
G----------------------|
D----------------------|
A-5-0-5-0-5-0-5-0-5-0-5|
E----------------------|


Verse 4X
G---0------|
D-----3-2-0|
A----------|
E-3--------|


Oh No no no...
G----------------------|
D----------------------|
A-5-0-5-0-5-0-5-0-5-0-5|
E----------------------|


And I dont know if i'm ever comin' home...
G----------|
D----------|
A-5-0-5-0-5|
E----------|

G-0|-0-|
D--|---|
A--|---|
E--|---|



Verse 4X
G---0------|
D-----3-2-0|
A----------|
E-3--------|


Oh No no no...
G----------------------|
D----------------------|
A-5-0-5-0-5-0-5-0-5-0-5|
E----------------------|

G--------| 
D--------|do this till you hear the music stop for a second
A-5-5-5-5|
E--------|


Verse 4X
G---0------|
D-----3-2-0|
A----------|
E-3--------|


Oh No no no...
G----------------------|
D----------------------|
A-5-0-5-0-5-0-5-0-5-0-5|
E----------------------|


And I dont know if i'm ever comin' home...
G----------|
D----------|
A-5-0-5-0-5|
E----------|



G-0|-0|-0|-0|-0|-0|-0|-0|
D--|--|--|--|--|--|--|--|
A--|--|--|--|--|--|--|--|
E--|--|--|--|--|--|--|--|


G--------|
D--------|do this till you hear the music stop for a second
A-5-5-5-5|
E--------|



Verse 4X
G---0------|
D-----3-2-0|
A----------|
E-3--------|


Oh No no no...
G----------------------|
D----------------------|
A-5-0-5-0-5-0-5-0-5-0-5|
E----------------------|


And I dont know if i'm ever comin' home...
G----------|
D----------|
A-5-0-5-0-5|
E----------|


G-0|-0-|
D--|---|
A--|---|
E--|---|



Verse Till end of song!!
G---0------|
D-----3-2-0|
A----------|
E-3--------|