Bass Tabs Another Time, Another Place (Bass Tabs) U2  

86
[0]
   0

Another time another place by u2
Standard Tuning

Intro (After Guitar):

G|----------------------------------|---------------------------------|
D|*---------------------------------|--------------------------------*|
A|*-2-2-2-2-2-2-2-2-----------------|--------------------------------*|
E|------------------3-3-3-3-3-3-3-3-|-2-2-2-2-2-2-2-2-0-0-0-0-0-0-0-0-|

G|----------------------------------|---------------------------------|
D|*---------------------------------|--------------------------------*|
A|*-2-2-2-2-2-2-2-2-----------------|--------------------------------*|
E|------------------3-3-3-3-3-3-3-3-|-2-2-2-2-2-2-2-2-0-0-0-0-0-0-0-0-|

Verse:

G|-----------------|----------------|----------------|----------------|
D|*----------------|----------------|----------------|---------------*|
A|*----------------|----------------|----------------|---------------*|
E|--0-0-0----0---0-|-0-3-0---0----0-|-0-3-0----0---0-|-0-3-0---0----0-|

G|-----------------|----------------|----------------|----------------|
D|*----------------|----------------|----------------|---------------*|
A|*----------------|----------------|----------------|---------------*|
E|--0-0-0----0---0-|-0-3-0---0----0-|-0-3-0----0---0-|-0-3-0---0----0-|

G|-----------------|----------------|----------------|----------------|
D|*----------------|----------------|----------------|---------------*|
A|*----------------|----------------|----------------|---------------*|
E|--0-0-0----0---0-|-0-3-0---0----0-|-0-3-0----0---0-|-0-3-0---0----0-|

G|-----------------|----------------|----------------|----------------|
D|*----------------|----------------|----------------|---------------*|
A|*----------------|----------------|----------------|---------------*|
E|--0-0-0----0---0-|-0-3-0---0----0-|-0-3-0----0---0-|-0-3-0---0----0-|

G|-----------------|----------------|
D|*----------------|---------------*|
A|*----------------|---------------*|
E|--0-0-0----0---0-|-0-3-0--0-0-0-0-|

G|---------------------------------|---------------------------------|
D|*--------------------------------|---------------------------------|
A|*--------------------------------|---------------------------------|
E|-5-5-5-5-5-5-5-5-3-3-3-3-3-3-3-3-|-5-5-5-5-5-5-5-5-3-3-3-3-3-3-3-3-|

G|---------------------------------|---------------------------------|
D|--------------------------------*|*--------------------------------|
A|--------------------------------*|*--------------------------------|
E|-5-5-5-5-5-5-5-5-3-3-3-3-3-3-3-3-|-1-1-1-1-1-1-1-1-5-5-5-5-5-5-5-5-|

G|-----------------|
D|----------------*|
A|----------------*|
E|-1-1-1-1-1-1-1-1-|

(Chorus)
G|----------------------------------|---------------------------------|
D|*---------------------------------|--------------------------------*|
A|*-2-2-2-2-2-2-2-2-----------------|--------------------------------*|
E|------------------3-3-3-3-3-3-3-3-|-2-2-2-2-2-2-2-2-0-0-0-0-0-0-0-0-|

G|----------------------------------|---------------------------------|
D|*---------------------------------|--------------------------------*|
A|*-2-2-2-2-2-2-2-2-----------------|--------------------------------*|
E|------------------3-3-3-3-3-3-3-3-|-2-2-2-2-2-2-2-2-0-0-0-0-0-0-0-0-|

Verse:

G|-----------------|----------------|----------------|----------------|
D|*----------------|----------------|----------------|---------------*|
A|*----------------|----------------|----------------|---------------*|
E|--0-0-0----0---0-|-0-3-0---0----0-|-0-3-0----0---0-|-0-3-0---0----0-|

G|-----------------|----------------|----------------|----------------|
D|*----------------|----------------|----------------|---------------*|
A|*----------------|----------------|----------------|---------------*|
E|--0-0-0----0---0-|-0-3-0---0----0-|-0-3-0----0---0-|-0-3-0---0----0-|

G|-----------------|----------------|----------------|----------------|
D|*----------------|----------------|----------------|---------------*|
A|*----------------|----------------|----------------|---------------*|
E|--0-0-0----0---0-|-0-3-0---0----0-|-0-3-0----0---0-|-0-3-0---0----0-|

G|-----------------|----------------|----------------|----------------|
D|*----------------|----------------|----------------|---------------*|
A|*----------------|----------------|----------------|---------------*|
E|--0-0-0----0---0-|-0-3-0---0----0-|-0-3-0----0---0-|-0-3-0---0----0-|

G|-----------------|----------------|
D|*----------------|---------------*|
A|*----------------|---------------*|
E|--0-0-0----0---0-|-0-3-0--0-0-0-0-|

G|---------------------------------|---------------------------------|
D|*--------------------------------|---------------------------------|
A|*--------------------------------|---------------------------------|
E|-5-5-5-5-5-5-5-5-3-3-3-3-3-3-3-3-|-5-5-5-5-5-5-5-5-3-3-3-3-3-3-3-3-|

G|---------------------------------|---------------------------------|
D|--------------------------------*|*--------------------------------|
A|--------------------------------*|*--------------------------------|
E|-5-5-5-5-5-5-5-5-3-3-3-3-3-3-3-3-|-1-1-1-1-1-1-1-1-5-5-5-5-5-5-5-5-|

G|-----------------|
D|----------------*|
A|----------------*|
E|-1-1-1-1-1-1-1-1-|

G|----------------------------------|---------------------------------|
D|*---------------------------------|--------------------------------*|
A|*-2-2-2-2-2-2-2-2-----------------|--------------------------------*|
E|------------------3-3-3-3-3-3-3-3-|-2-2-2-2-2-2-2-2-0-0-0-0-0-0-0-0-|

G|----------------------------------|---------------------------------|
D|*---------------------------------|--------------------------------*|
A|*-2-2-2-2-2-2-2-2-----------------|--------------------------------*|
E|------------------3-3-3-3-3-3-3-3-|-2-2-2-2-2-2-2-2-0-0-0-0-0-0-0-0-|

G|----------------------------------|---------------------------------|
D|*---------------------------------|--------------------------------*|
A|*-2-2-2-2-2-2-2-2-----------------|--------------------------------*|
E|------------------3-3-3-3-3-3-3-3-|-2-2-2-2-2-2-2-2-0-0-0-0-0-0-0-0-|

G|----------------------------------|---------------------------------|
D|*---------------------------------|--------------------------------*|
A|*-2-2-2-2-2-2-2-2-----------------|--------------------------------*|
E|------------------3-3-3-3-3-3-3-3-|-2-2-2-2-2-2-2-2-0-0-0-0-0-0-0-0-|

(During Solo)
G|----------------------------------|---------------------------------|
D|*---------------------------------|--------------------------------*|
A|*-2-2-2-2-2-2-2-2-----------------|--------------------------------*|
E|------------------3-3-3-3-3-3-3-3-|-2-2-2-2-2-2-2-2-0-0-0-0-0-0-0-0-|

G|----------------------------------|---------------------------------|
D|*---------------------------------|--------------------------------*|
A|*-2-2-2-2-2-2-2-2-----------------|--------------------------------*|
E|------------------3-3-3-3-3-3-3-3-|-2-2-2-2-2-2-2-2-0-0-0-0-0-0-0-0-|

G|----------------------------------|---------------------------------|
D|*---------------------------------|--------------------------------*|
A|*-2-2-2-2-2-2-2-2-----------------|--------------------------------*|
E|------------------3-3-3-3-3-3-3-3-|-2-2-2-2-2-2-2-2-0-0-0-0-0-0-0-0-|

G|----------------------------------|---------------------------------|
D|*---------------------------------|--------------------------------*|
A|*-2-2-2-2-2-2-2-2-----------------|--------------------------------*|
E|------------------3-3-3-3-3-3-3-3-|-2-2-2-2-2-2-2-2-0-0-0-0-0-0-0-0-|

G|----------------------------------|---------------------------------|
D|*---------------------------------|--------------------------------*|
A|*-2-2-2-2-2-2-2-2-----------------|--------------------------------*|
E|------------------3-3-3-3-3-3-3-3-|-2-2-2-2-2-2-2-2-0-0-0-0-0-0-0-0-|

G|----------------------------------|---------------------------------|
D|*---------------------------------|--------------------------------*|
A|*-2-2-2-2-2-2-2-2-----------------|--------------------------------*|
E|------------------3-3-3-3-3-3-3-3-|-2-2-2-2-2-2-2-2-0-0-0-0-0-0-0-0-|

G|----------------------------------|---------------------------------|
D|*---------------------------------|--------------------------------*|
A|*-2-2-2-2-2-2-2-2-----------------|--------------------------------*|
E|------------------3-3-3-3-3-3-3-3-|-2-2-2-2-2-2-2-2-0-0-0-0-0-0-0-0-|

G|----------------------------------|---------------------------------|
D|*---------------------------------|--------------------------------*|
A|*-2-2-2-2-2-2-2-2-----------------|--------------------------------*|
E|------------------3-3-3-3-3-3-3-3-|-2-2-2-2-2-2-2-2-0-0-0-0-0-0-0-0-|

G|----------------------------------|---------------------------------|
D|*---------------------------------|--------------------------------*|
A|*-2-2-2-2/------------------------|--------------------------------*|
E|------------------3-3-3-3/--------|-2-2-2-2/--------0-0-0-0-0-0-0-0-|

G|----------------------------------|---------------------------------|
D|*---------------------------------|--------------------------------*|
A|*-2-2-2-2/------------------------|--------------------------------*|
E|------------------3-3-3-3/--------|-2-2-2-2/--------0-0-0-0-0-0-0-0-|

G|----------------------------------|---------------------------------|
D|*---------------------------------|--------------------------------*|
A|*-2-2-2-2-2-2-2-2-----------------|--------------------------------*|
E|------------------3-3-3-3-3-3-3-3-|-2-2-2-2-2-2-2-2-0-0-0-0-0-0-0-0-|

G|----------------------------------|---------------------------------|
D|*---------------------------------|--------------------------------*|
A|*-2-2-2-2-2-2-2-2-----------------|--------------------------------*|
E|------------------3-3-3-3-3-3-3-3-|-2-2-2-2-2-2-2-2-0-0-0-0-0-0-0-0-|

G|----------------------------------|---------------------------------|
D|*---------------------------------|--------------------------------*|
A|*-2-2-2-2-2-2-2-2-----------------|--------------------------------*|
E|------------------3-3-3-3-3-3-3-3-|-2-2-2-2-2-2-2-2-0-0-0-0-0-0-0-0-|

G|----------------------------------|---------------------------------|
D|*---------------------------------|--------------------------------*|
A|*-2-2-2-2-2-2-2-2-----------------|--------------------------------*|
E|------------------3-3-3-3-3-3-3-3-|-2-2-2-2-2-2-2-2-0-0-0-0-0-0-0-0-|

(Outro)
G|-----------------|----------------|----------------|----------------|
D|*----------------|----------------|----------------|---------------*|
A|*----------------|----------------|----------------|---------------*|
E|--0-0-0----0---0-|-0-3-0---0----0-|-0-3-0----0---0-|-0-3-0---0----0-|

G|-----------------|----------------|
D|*----------------|---------------*|
A|*----------------|---------------*|
E|--0-0-0----0---0-|-0--------/-12--|

Thanks, please rate it after you learn it.
_TheBassist01_

Fuente: http://www.azchords.com/u/u2-tabs-4506/anothertimeanotherplace-tabs-93498.html